Bob Marley - I Shot The Sheriff Chords & Tabs

 

I Shot The Sheriff Chords & Tabs

Bob Marley Chords & Tabs

Version: 2 Type: Bass Tab 0 ratings
1 star 2 stars 3 stars 4 stars 5 stars
comments

I Shot The Sheriff Bass Tab

Song: I Shot The Sheriff, 
Artist: Bob Marley, 
Album: Burnin 

This is mostly right. I've only put out the bones of the song. Enjoy! 

[ Tab from: http://www.guitartabs.cc/tabs/b/bob_marley/i_shot_the_sheriff_btab_ver_2.html ]
CHORUS:
|-------------------------------------------------|
|---------------------------2---2---2-4-2-2-2-2-4-|
|-----2-4---0h2-------4---4---4-------------------|
|-2-5-----2---------------------------------------| 


VERSE: 
|---------|----------|------------------|
|-----8---|-------6--|------------------|
|-6-6--6--|--4-4---4-|-----6-------6----|
|---------|----------|-4-4--4---4-4--4--| 

BRIDGE: 
|-----------------------|
|-4-2-------------------|
|-----4-2---2-4-2-------|
|----------5--------5-2-|
Comments