Bob Dylan - Subterranean Homesick Blues Chords & Tabs

 

Subterranean Homesick Blues Chords & Tabs

Bob Dylan Chords & Tabs

Version: 1 Type: Bass Tab

Subterranean Homesick Blues Bass Tab

Main riff (with effect)
G|---------------------------------------------------------------------|
D|---------------------------------------------------------------------|
A|---4-5-4-5----7-5----------4-5---------------------------------------|
E|-0---------0------6--3-0---------3-2-0-------------------------------|

G|---------------------------------------------------------------------|
D|---------------------------------------------------------------------|
A|-4-5-----------------------------------------------------------------|
E|-------3-3-5-5-------------------------------------------------------|

Chorus ( clean )
G|---------------------------------------------------------------------|
D|---------------------------------------------------------------------|
A|---------------------------------------------------------------------|
E|-5~~/0--0-0-0--0-0-0--0--......--------------------------------------|

Solo 1 ( effected part )
G|---7h8----------------------8----------------------8h9------------------------|
D|-------8h10-----7h8-7---8---------7h8----8h10-*-*-------8-8-8h10--------------|
A|--------------------------7---------------------------------------3-3-3-3---3-|
E|------------------------------------------------------------------------------|
[ Tab from: http://www.guitartabs.cc/tabs/b/bob_dylan/subterranean_homesick_blues_btab.html ]
Solo 1
G|-----------------------------------------------------------------------|
D|-----------------------------------------------------------------------|
A|--3-3-3--3-3-3-3--3-3-3-3---...----------------------------------------|
E|-----------------------------------------------------------------------|

Solo 2 part 1 (with effect)
G|----11-------9-8-/9------11------9/8------11---------9-11--/14-------|11
D|--------9h11----------------9h11--------------0-9h11-----------------|
A|-9------------------0--9----------------9----------------------0--9--|
E|---------------------------------------------------------------------|

G|---------------------11---------9-8-9-8---------9-14------------9----|
D|--0-9h11----------------0--9h11---------0-----9------------9-11------|
A|---------12-------9------------------------9------------9------------|
E|-------------2-------------------------------------------------------|

G|------9h11---------9-11-13-14----------------------------------------|
D|-9h11---------9-11---------------------------------------------------|
A|------------9--------------------------------------------------------|
E|---------------------------------------------------------------------|

Solo 2 part 2 (clean)
G|---------------------------------------------------------------------|
D|---------------------------------------------------------------------|
A|---------------------------------------------------------------------|
E|--0--2-2---0--2-2--...---0-2-2-0-2/(10)--2-2-0-2/(14)----2-2-0-/(10)-| etc..

Pre 2nd chorus
G|---------------------------------------------------------------------|
D|---------------------------------------------------------------------|
A|-7-7-7-----7-5-5-5-----5-3-3-3-----3-2-2-2--5-5-5-5------------------|
E|-------7h9---------5h7---------3h5-----------------------------------|