Bob Dylan - My Back Pages Chords & Tabs

 

My Back Pages Chords & Tabs

Bob Dylan Chords & Tabs

Version: 1 Type: Tab 0 ratings
1 star 2 stars 3 stars 4 stars 5 stars
comments

My Back Pages Tab

 From:Natan




            Here is Neil Youngs guitar solo for My back

                  at the 30th anniversary concert       





  e---16---16---16---14--------14---16-----------------------------------|
  B-----------------------17-------------17---17---17---17---17----------|
  G---------------------------------------------------------------14---13|
  D----------------------------------------------------------------------|
  A----------------------------------------------------------------------|
  E----------------------------------------------------------------------|


[ Tab from: http://www.guitartabs.cc/tabs/b/bob_dylan/my_back_pages_tab.html ]
  e------------------14---16---17---s16------------------16---16---14|
  B---17---17---17------------------------17---17---17---------------|
  G------------------------------------------------------------------|
  D------------------------------------------------------------------|
  A------------------------------------------------------------------|
  E------------------------------------------------------------------|



  e------------------------------------------------------------------------|
  B---17---17---17---17---16--------16-------------------------------------|
  G----------------------------18--------18---16---16---h18---16---h18-----|
  D------------------------------------------------------------------------|
  A------------------------------------------------------------------------|
  E------------------------------------------------------------------------|



  e-------------------------------------------------------------------|
  B-------------------------------------------------------------------|
  G---16---h18---16---14---18---16------------------------------------|
  D-------------------------------------------------------------------|
  A-------------------------------------------------------------------|
  E-------------------------------------------------------------------|





     Enjoy!
Comments