Bob Dylan - Lay Lady Lay Chords & Tabs

 

Lay Lady Lay Chords & Tabs

Bob Dylan Chords & Tabs

Version: 2 Type: Chords 0 ratings
1 star 2 stars 3 stars 4 stars 5 stars
comments

Lay Lady Lay Chords

   
Bob Dylan
Lay Lady Lay
Standard Tuning
my first tab:
[ Tab from: http://www.guitartabs.cc/tabs/b/bob_dylan/lay_lady_lay_crd_ver_2.html ]
    Lay lady lay...
                G  
E--5--5--4--4--3--3--2--2-----5--5-----4--4-----3--3-----2--2-----
B--5--5--5--5--3--3--3--3-----5--5-----5--5-----3--3-----3--3-----
G--6--6--6--6--4--4--4--4-----6--6-----6--6-----4--4-----4--4-----
D--7--7--6--6--5--5--4--4-----7--7-----6--6-----5--5-----4--4-----
A--7--7--4--4--5--5--2--2-----7--7-----4--4-----5--5-----2--2-----
E--5--5--4--4--3--3--2--2--0--5--5--0--4--4--0--3--3--0--2--2--0--
         E         Fm          A 
E--0--0--0--0--0--1--1-----0--0--0--0--0---0--0--0--0--0--0--0--
B--0--0--0--0--0--1--1--0--2--2--3--3--2---2--2--0--0--0--0--0--
G--1--1--1--1--1--1--1--0--2--2--2--2--2---2--2--1--1--1--1--1--
D--2--2--2--2--2--3--3--0--2--2--2--2--2---2--2--2--2--2--2--2--
A--2--2--2--2--2--3--3--0--0--0--0--0--0---0--0--2--2--2--2--2--
E--0--0--0--0--0--1--1---------------------------0--0--0--0--0--
 
E--1--1-----0--0--0--0--0---0--0--    Then start back at beginning.
B--1--1--0--2--2--3--3--2---2--2--    I dont know how many times he 
G--1--1--0--2--2--2--2--2---2--2--    repeats it.
D--3--3--0--2--2--2--2--2---2--2--    reach me at dcdiggity3@aol.com
A--3--3--0--0--0--0--0--0---0--0--    Sorry if this is all screwed up,
E--1--1---------------------------    im only 14.   Thanks.
Comments