Bob Dylan - Isis Chords & Tabs

 

Isis Chords & Tabs

Bob Dylan Chords & Tabs

Version: 1 Type: Bass Tab 0 ratings
1 star 2 stars 3 stars 4 stars 5 stars
comments

Isis Bass Tab

Bob Dylan
Album:Desire
Song:Isis

I really wanted to do a bob dylan bass tab because you can hardly find any.
If anyone is willing to post any dylan tabs i'd really appreciate it (especially "HURRICANE")

Intro
play as 8th notes
---------------------------|
---------------------------|
---------------------------|
--4/5-4/5-4/5-4/5-4/5-4/5--|


Main riff
play as 1/2 notes
-------------------|
-------------------|   play 4x
-------------------|
-----7--5--8--5----|


-------------------|
-------------------|
-------------------|
--4/5-4/5-4/5-4/5--|


-------------------|
-------------------|   play 4x
-------------------|
-----7--5--8--5----|


-------------------|
-------------------|
-------------------|
---4/5---5-4/5---5-|


-------------------|
-------------------|   play 16x
-------------------|
----7--5--8--5-----|


--------|
--------|
--------|
--4/5---|

[ Tab from: http://www.guitartabs.cc/tabs/b/bob_dylan/isis_btab.html ]
--------------------|
--------------------|   play 9x
--------------------|
---7--5--8--5-------|


--------------------|
--------------------|
--------------------|
---4/5-4/5-4/5-4/5--|


--------------------|
--------------------|   play 5x
--------------------|
---7--5--8--5-------|  


--------------------|
--------------------|
--------------------|
-----4/5-4/5--------|


--------------------|
--------------------|   play 8x
--------------------|
----7--5--8--5------|



--------------------|
--------------------|
--------------------|
--4/5-4/5-4/5-4/5---|



--------------------|
--------------------|   play 4x
--------------------|
----7--5--8--5------|


--------------------|
--------------------|
--------------------|
---4/5-4/5-4/5-4/5--|


--------------------|
--------------------|   play 24x
--------------------|
----7--5--8--5------|


outro
-----------------|
-----------------|
-----------------|
------5555555555-|
Comments