Board Crazy - Girl From Mars Chords & Tabs

 

Girl From Mars Chords & Tabs

Board Crazy Chords & Tabs

Version: 1 Type: Bass Tab 0 ratings
1 star 2 stars 3 stars 4 stars 5 stars
comments

Girl From Mars Bass Tab

   
Artist: Board Crazy
Track: Girl from Mars
Album: Kickflip
Bass Player: Peter Hopkins (Me)
Lead Guitar: Carl Bray
Drummer: Joel Martin


*Tunning*

 Guitarr..D-Tunning
 Bass.....Normal 

 (there is no use of tunning down the bass)

Intro: clean
d||------------------------------------------------------------------||
A||------------------------------------------------------------------||
F||------------------------------------------------------------------||
C||---4-0-----4-0-----4-0-----4-0-----4-0------4-0-----4-0-----4-0---||
G||-2-------2-------0-------0----------------------------------------||
D||---------------------------------3-------3--------0-------3-------||


Verse: distortion and palm mute
d||-----------------------------------------------------------------||
A||-----------------------------------------------------------------||
F||-----------------------------------------------------------------||
C||-7-7-7-7-7-7-7-7-----------------7-7-7-7-7-7-7-7-----------------||
G||-5-5-5-5-5-5-5-5-5-5-5-5-5-5-5-5-2-2-2-2-2-2-2-2-5-5-5-5-5-5-5-5-||
D||-----------------3-3-3-3-3-3-3-3-----------------3-3-3-3-3-3-3-3-||


1st Bridge: clean
d||---------------------------------------------------------------||
A||---------------------------------------------------------------||
F||-----0------0--------0-------0---------------------------------||
C||---7------7--------9-------9-------4-0-----4-0-----4-0-----4-0-||
G||-5-------5------/7-------7-------2-------2---------------------||
D||-------------------------------------------------3------3------||

  second round bass enters and plays
G||-----------------------------------------------------------------||
D||-----------------------------------------------------------------||
A||-3-3-3-3-3-3-3-3-5-5-5-5-5-5-5-5---------------------------------||
E||---------------------------------5-5-5-5-5-5-5-5-1-1-1-1-1-1-1-1-||


[ Tab from: http://www.guitartabs.cc/tabs/b/board_crazy/girl_from_mars_btab.html ]
2nd Bridge: clean
d||---------------------------------------------------------------||
A||---------------------------------------------------------------||
F||-----0------0--------0-------0---------------------------------||
C||---7------7--------9-------9-------4-0-----4-0-----2-0-----2-0-||
G||-5-------5------/7-------7-------2-------2---------------------||
D||-------------------------------------------------3------3------||

  second round bass enters and plays
G||-----------------------------------------------------------------||
D||-----------------------------------------------------------------||
A||-3-3-3-3-3-3-3-3-5-5-5-5-5-5-5-5---------------------------------||
E||---------------------------------5-5-5-5-5-5-5-5-1-1-1-1-1-1-1-1-||


 Pre-Chorus: clean
d||-----------------------------------------------------------------
A||-----------------------------------------------------------------
F||-----------------------------------------------------------------
C||-7-7-7-7-7-7-7-7-9-9-9-9-9-9-9-9-7-7-7-7-7-7-7-7----------------- 
G||-5-5-5-5-5-5-5-5-7-7-7-7-7-7-7-7-2-2-2-2-2-2-2-2-5-5-5-5-5-5-5-5-
D||-------------------------------------------------3-3-3-3-3-3-3-3-

  
   -----------------------------------------------------------------||
   -----------------------------------------------------------------||
   -6-6-6-6-6-6-6-6-7-7-7-7-7-7-7-7-6-6-6-6-6-6-6-6-7-7-7-7-7-7-7-7-||
   -4-4-4-4-4-4-4-4-5-5-5-5-5-5-5-5-4-4-4-4-4-4-4-4-5-5-5-5-5-5-5-5-||
   -----------------------------------------------------------------||
   -----------------------------------------------------------------||

  bass plays this twise
G||-----------------------------------------------------------------||
D||-----------------------------------------------------------------||
A||-3-3-3-3-3-3-3-3-5-5-5-5-5-5-5-5---------------------------------||
E||---------------------------------5-5-5-5-5-5-5-5-1-1-1-1-1-1-1-1-||


 Chorus: distortion
d||-----------------------------------------------------------------||
A||-----------------------------------------------------------------||
F||-7-7-7-7-7-7-7-7-9-9-9-9-9-9-9-9-7-7-7-7-7-7-7-7-----------------||
C||-7-7-7-7-7-7-7-7-9-9-9-9-9-9-9-9-7-7-7-7-7-7-7-7-5-5-5-5-5-5-5-5-||
G||-5-5-5-5-5-5-5-5-7-7-7-7-7-7-7-7-2-2-2-2-2-2-2-2-5-5-5-5-5-5-5-5-||
D||-------------------------------------------------3-3-3-3-3-3-3-3-||

  bass plays
G||-----------------------------------------------------------------||
D||-5-5-5-5-5-5-5-5-7-7-7-7-7-7-7-7---------------------------------||
A||-3-3-3-3-3-3-3-3-5-5-5-5-5-5-5-5-7-7-7-7-7-7-7-7-2-2-2-2-2-2-2-2-||
E||---------------------------------5-5-5-5-5-5-5-5-1-1-1-1-1-1-1-1-||



Tabbed by: Bassist of Board Crazy Peter Hopkins
psychokray13@hotmail.com
Comments