Boa - Duvet Chords & Tabs

 

Duvet Chords & Tabs

Boa Chords & Tabs

Version: 1 Type: Tab 0 ratings
1 star 2 stars 3 stars 4 stars 5 stars
comments

Duvet Tab

   
Artist: Ba
Song: Duvet (Serial Experiments Lain Opening)
Tabbed by: Kaka (berdel@spray.se)
http://www.dolda2000.com/~kaka/ketabs.html

Chords:
---------Verse----------
G6		[320030]
Bm(+11)		[x24430]
Em7		[022030]
-----------Chorus-------------
Em7		[x 7 0 9 8 10]
Bm(+aug5+11)	[7 9 0 0 10 0]
G6		[350450]

These chords were taken from http://www.boaweb.co.uk/tablature.htm
Lyrics can be found here http://www.animelyrics.com/anime/lain/selduvet.htm

h - hammer on
p - pull off
/ - slide up
? - not quite sure about that tone but it doesn't hurt to play it anyway

Those numbers below the tabs represent the beats to make it easier to know
when to play each note ..thought i should mention it...just in case

Verse	G6	Bm	Em7	Bm
Chorus	Em7	Bm	G6	G6


Bridge, part 1:

Guitar 1:

E) |5-----5-----5-----5-----5-------|10----9-----7-----9-----9---10--|
B) |--3-----3-----3-----3-----3-----|--8-----8-----5-----7?--7?--8?--|
G) |----4-----4-----4-----4-----4---|----9-----9-----7-----7---------|
D) |--------------------------------|--------------------------------|
A) |--------------------------------|--------------------------------|
E) |--------------------------------|--------------------------------|
    1 2 3 4 1 2 3 4 1 2 3 4 1 2 3 4  1 2 3 4 1 2 3 4 1 2 3 4 1 2 3 4

E) |12----14----12----10----9---10--|9-----10----9-----7-----7-------|
B) |--10----12----10----8-----8---8-|--8-----8-----8-----5-----5-----|
G) |----12----14----12----9---------|----9-----9-----9-----7-----7---|
D) |--------------------------------|--------------------------------|
A) |--------------------------------|--------------------------------|
E) |--------------------------------|--------------------------------|
    1 2 3 4 1 2 3 4 1 2 3 4 1 2 3 4  1 2 3 4 1 2 3 4 1 2 3 4 1 2 3 4

E) |5-----5-----5-----5-----5-------|10----9-----7-----9-----9---10--|
B) |--3-----3-----3-----3-----3-----|--8-----8-----5-----7?--7?--8?--|
G) |----4-----4-----4-----4-----4---|----9-----9-----7-----7---------|
D) |--------------------------------|--------------------------------|
A) |--------------------------------|--------------------------------|
E) |--------------------------------|--------------------------------|
    1 2 3 4 1 2 3 4 1 2 3 4 1 2 3 4  1 2 3 4 1 2 3 4 1 2 3 4 1 2 3 4

E) |12----14----12----14----12--14--|12----14----19----19----19------|
B) |--10----12----10----12----------|--10----12----17----17----17----|
G) |----12----14----12----14--14--14|----12----14----19----19----19--|
D) |--------------------------------|--------------------------------|
A) |--------------------------------|--------------------------------|
E) |--------------------------------|--------------------------------|
    1 2 3 4 1 2 3 4 1 2 3 4 1 2 3 4  1 2 3 4 1 2 3 4 1 2 3 4 1 2 3 4

Guitar 2:

E) |------3---------------7---------|--------------------------------|
B) |------------------8-------8-----|3-------5-------7-------7---8---|
G) |--------------------7-----------|----2-------4-------7-----------|
D) |----0---0-------------------7---|--------------------------------|
A) |--2-------2-/9--7-------7-------|2-------4-------5-----5---9-----|
E) |3-------------------------------|--------------------------------|
    1 2 3 4 1 2 3 4 1 2 3 4 1 2 3 4  1 2 3 4 1 2 3 4 1 2 3 4 1 2 3 4

E) |------7---------------7---------|------2-------------------------|
B) |--8-------8-------8-------8-----|--3-------3-------3-------3-----|
G) |----7-------7-------7-------7---|----2---------------2-----------|
D) |--------9---------------9-------|--------4-----------------------|
A) |7---------------10--------------|2-----------0---2-----------0---|
E) |--------------------------------|------------------------2-----2-|
    1 2 3 4 1 2 3 4 1 2 3 4 1 2 3 4  1 2 3 4 1 2 3 4 1 2 3 4 1 2 3 4

Basically the same thing again but with a slight difference at the end
[ Tab from: http://www.guitartabs.cc/tabs/b/boa/duvet_tab.html ]
E) |------3---------------7---------|--------------------------------|
B) |------------------8-------8-----|3-------5-------7-------7---8---|
G) |--------------------7-----------|----2-------4-------7-----------|
D) |----0---0-------------------7---|--------------------------------|
A) |--2-------2-/9--7-------7-------|2-------4-------5-----5---9-----|
E) |3-------------------------------|--------------------------------|
    1 2 3 4 1 2 3 4 1 2 3 4 1 2 3 4  1 2 3 4 1 2 3 4 1 2 3 4 1 2 3 4

E) |------7---------------7---------|------2-------------------------|
B) |--8-------8-------8-------8-----|--3-------3-------3---3---3-----|
G) |----7-------7-------7-------7---|----2---------------2-----------|
D) |--------9---------------9-------|--------4-----------------------|
A) |7---------------10--------------|2-----------0---2-----------0---|
E) |--------------------------------|------------------------2-------|
    1 2 3 4 1 2 3 4 1 2 3 4 1 2 3 4  1 2 3 4 1 2 3 4 1 2 3 4 1 2 3 4


Bridge, part 2:

Guitar 1:

E) |2--h3-p2-3--h5-p3-5--h7-p5-9--h10p9-10-h1214-h15|p14---------------|
B) |------------------------------------------------|------------------|
G) |------------------------------------------------|------------------|
D) |------------------------------------------------|------------------|
A) |------------------------------------------------|------------------|
E) |------------------------------------------------|------------------|
    1  2  3  4  1  2  3  4  1  2  3  4  1  2  3  4   1  234123412341234

E) |14-h15p1410-h12p105--h7-p5-2--h3-p2-------------|------------------|
B) |------------------------------------3--h5-p3-h5-|p3----------------|
G) |------------------------------------------------|------------------|
D) |------------------------------------------------|------------------|
A) |------------------------------------------------|------------------|
E) |------------------------------------------------|------------------|
    1  2  3  4  1  2  3  4  1  2  3  4  1  2  3  4   1  234123412341234

E) |2--h3-p2-3--h5-p3-5--h7-p5-9--h10p9-10-h1214-h15|p14---------------|
B) |------------------------------------------------|------------------|
G) |------------------------------------------------|------------------|
D) |------------------------------------------------|------------------|
A) |------------------------------------------------|------------------|
E) |------------------------------------------------|------------------|
    1  2  3  4  1  2  3  4  1  2  3  4  1  2  3  4   1  234123412341234

E) |17-h19p1714-h15p1410-h12p105--h7-p5-2--h3-p2-h3-|p2----------------|
B) |------------------------------------------------|------------------|
G) |------------------------------------------------|------------------|
D) |------------------------------------------------|------------------|
A) |------------------------------------------------|------------------|
E) |------------------------------------------------|------------------|
    1  2  3  4  1  2  3  4  1  2  3  4  1  2  3  4   1  234123412341234

You could try to bend these notes instead, but it's a lot harder

Guitar 2:

E) |------------0-------------------|--------0-----------------------|
B) |----------3---------------------|------3-----3-------------------|
G) |--------0-----------------------|----4-------------4-------------|
D) |------0-------------------------|--4-----------------4-------4---|
A) |----2---------------------------|2-----------------------0-h2----|
E) |3-------------------------------|--------------------------------|
    1 2 3 4 1 2 3 4 1 2 3 4 1 2 3 4  1 2 3 4 1 2 3 4 1 2 3 4 1 2 3 4

E) |------0-----2-------0-----------|--------0-----------------------|
B) |------------------------0-------|------3-----3-------------------|
G) |----------------------------0---|----4-------------4-------------|
D) |----2-----2---------------------|--4-----------------4-------4---|
A) |--------------------------------|2-----------------------0-h2----|
E) |0-------0-----------------------|--------------------------------|
    1 2 3 4 1 2 3 4 1 2 3 4 1 2 3 4  1 2 3 4 1 2 3 4 1 2 3 4 1 2 3 4

Repeat once and on the last chord(Bm), start strumming the chord instead
of just picking the notes
You can also mix in a little strumming with the note-picking throughout
this part


This tab isn't entirely accurate, there were a few notes I couldn't hear
to well, but it's all you need it to be hopefully(it sounds good in midi)
Also this is my first tab, so any feedback is welcome

Enjoy!
Comments