Boa - Duvet Bass Tab Exact Chords & Tabs

 

Duvet Bass Tab Exact Chords & Tabs

Boa Chords & Tabs

Version: 1 Type: Bass Tab 0 ratings
1 star 2 stars 3 stars 4 stars 5 stars
comments

Duvet Bass Tab Exact Bass Tab

   
Duvet Bass
Boa
Lain Sountrack
4/4 time

Chord: G6

G--------------------------------------------
D--------------------------------------------
A---------------------------------------------
E –2-3-3-3-3-------2-3----3---3-2-3-3-3-------

Chord Bm (+11)

G----------------------------------------------
D----------------------------------------------
A----------------------------------------------
E—5-7-7-7-7------5-7---7-----7-5-7-7-7---------

Play This part for the first line and third line:

Chord Em

G---------------------------------------------
D---------------------------------------------
A--5-7-7-7-7----5-7----7---7-5-7-7-7—---------
E----------------------------------------------

Otherwise Play this for the next second line

Chord Em

G---------------------------------------
D------------------------------7—9---
A-5-7-7-7-7---5-7----7---7--------9
E----------------------------------------

Chord Bm

G-----------------------------------------
D----------------------------------------
A----------------------------------------
E-5-7-7-7-7----5-7----7---7-5-7-7-7-






First Chorus (shorter one)

Chords
       Em                       Bm (+11)          G6
G-----------------------------------------------
D----------------------------------------------
A-----------7----------------------------------
E—0--------------------5-7----7----------3—---

	G
G----------------------------------------
D--------------------------------------
A—3—3—3—3—3—3—3—3------------------------
E---------------------------------------

	Em                     Bm(+11)        G6 
G-----------------------------------------------
D----------------------------------------------
A-----------7----------------------------------
E—0--------------------5-7----7----------3—---

         G
G------------------------------------------------
D------------------------------------------------
A-----3------------------------------------------
E-------------------------------------------------

Repeat the Verse Again

Second Chorus (Full Chorus)

       Em                       Bm (+11)          G6
G-----------------------------------------------
D----------------------------------------------
A-----------7----------------------------------
E—0--------------------5-7----7----------3—
[ Tab from: http://www.guitartabs.cc/tabs/b/boa/duvet_bass_tab_exact_btab.html ]
	G
G----------------------------------------
D--------------------------------------
A—3—3—3—3—3—3—3—3-------------------
E---------------------------------------

     

  Em                       Bm (+11)          G6
G-----------------------------------------------
D----------------------------------------------
A-----------7----------------------------------
E—0--------------------5-7----7----------3—-------

	G
G----------------------------------------
D--------------------------------------
A—3—3—3—3—3—3—3—3-----------------------
E---------------------------------------

  Em                       Bm (+11)          G6
G-----------------------------------------------
D----------------------------------------------
A-----------7----------------------------------
E—0--------------------5-7----7----------3—---


	G
G----------------------------------------
D--------------------------------------
A—3—3—3—3—3—3—3—3-----------------------
E---------------------------------------

Em                       Bm (+11)          G6
G-----------------------------------------------
D----------------------------------------------
A-----------7----------------------------------
E—0--------------------5-7----7----------3—----

	G
G-----------------------------------------------
D-----------------------------------------------
A-------3---------------------------------------
E------------------------------------------------

Solo- Break for Bass, No Bass for 16 bars then:

Chord: G6

G--------------------------------------------
D--------------------------------------------
A---------------------------------------------
E –2-3-3-3-3-------2-3----3---3-2-3-3-3-------

Chord Bm (+11)

G----------------------------------------------
D----------------------------------------------
A----------------------------------------------
E—5-7-7-7-7------5-7---7-----7-5-7-7-7---------


Chord Em

G---------------------------------------------
D---------------------------------------------
A--5-7-7-7-7----5-7----7---7-5-7-7-7—---------
E----------------------------------------------

Chord Bm (+11)

G----------------------------------------------
D----------------------------------------------
A----------------------------------------------
E—5-7-7-7-7------5-7---7-----7-5-7-7-7---------

Then repeat the whole Chorus

The End! Good Job!
Comments