Bo Bice - Inside Your Heaven Chords & Tabs

 

Inside Your Heaven Chords & Tabs

Bo Bice Chords & Tabs

Version: 1 Type: Tab 0 ratings
1 star 2 stars 3 stars 4 stars 5 stars
comments

Inside Your Heaven Tab

   
-------------------------------------------------------------------------------
			     SONG NAME - Band Name
-------------------------------------------------------------------------------
Tabbed by: Zac VanSchoyck
Email: zacvan@hotmail.com

Tuning: EADGBe     (low to high)

I was watching Good Morning America and I figured this out. This is the B side of his
soon to be released single. This song is very basic to play, so I'll just show you the
parts you need to know.

Chords used:

G: 320033
Cadd9: x32030
E: 022100
C: x32010

The verse part goes like this:
[ Tab from: http://www.guitartabs.cc/tabs/b/bo_bice/inside_your_heaven_tab.html ]
G
I've been down
now I'm blessed
Cadd9
I felt a revelation coming around
G
I guess its right, it's so amazing
Cadd9
everytime I see you I'm alive
G
you're all I've got
you lift me up
Cadd9
all my dreams are in your eyes

The intro follows the same pattern of the chords in the verse. All of the verses are
the same chord-wise.


The chorus bit goes like this:

e|--------------------------0-0-0-0---0---0------------------|
B|--------------------------0-0-0-0---1---1------------------|
G|--------------------------1-1-1-1---0---0------------------|
D|--------------------------2-2-2-2---2---2------------------|
A|--3----2----0-------------2-2-2-2---3---3------------------|
E|-----------------3------0-0-0-0-0--------------------------|
Play that 2 times.


Thats it for the song. Its a very simple song. He plays the chord in the verse for the
intro with the harmonica, and plays them everytime with each verse. He plays the chorus
riff twice with each chorus, then he ends on a G chord. Hope you had fun playing his!
Comments