Bluvertigo - La Crisi Chords & Tabs

 

La Crisi Chords & Tabs

Bluvertigo Chords & Tabs

Version: 2 Type: Tab 0 ratings
1 star 2 stars 3 stars 4 stars 5 stars
comments

La Crisi Tab

Bluvertigo  
tab by edoardo caliaro
for any informations

 riff 1 (x2)
e--------5-5-5-----|-------5-5-5-----|-------7-7-7-5-5-|-------5-5-5-----||
b--------------7-7-|-------------7-7-|-----------------|-------------8-8-||
g--7-7-7-----------|-6-6-6-----------|-5-5-5-----------|-----------------||
d------------------|-----------------|-----------------|-8-8-8-----------||
a------------------|-----------------|-----------------|-----------------||
E------------------|-----------------|-----------------|-----------------||


      Re                     Re/Do#
Sto vivendo una crisi e una crisi c'? sempre
     Re/Do                 Sol/Si
ogni volta che qualcosa non va
      Re                     Re/Do#
Sto vivendo una crisi e una crisi ? nell'aria
     Re/Do                Sol/Si
ogni volta che mi sento solo
Mim                Solm          Re  Re/Do Sol/Si
So che rimarr? distratto per un po'
Mim                Solm
Quindi rimarr? altrettanto distante

riff 1 (x1)
[ Tab from: http://www.guitartabs.cc/tabs/b/bluvertigo/la_crisi_tab_ver_2.html ]
Quando inizia una crisi ? un po' tutto concesso
quasi come a carnevale
Quando ? in corso una crisi dimentico tutto
e posso farmi perdonare
So che rimarr? un po' assente da scuola
e forse non andrei nemmeno al lavoro

riff 2 (x2)

e-------------|-------------|--------------|--------------||
b-5-5-5-/12-9-|-4-4-4-/12-9-|-3-3-3-/14-12-|-1-1-1-/12-10-||
g-------------|-------------|--------------|--------------||
d-------------|-------------|--------------|--------------||
a-------------|-------------|--------------|--------------||
E-------------|-------------|--------------|--------------||

         Mi                   Mi/Re#
Quando arriva una crisi riaffiorano alcuni
    Mi/Re            La/Do#
ricordi che credevo persi
       Mi              Mi/Re#
Cosa penso di me cosa voglio da te
      Mi/Re            La/Do#
dove sono cosa sono e perch?
Fa#m                   Lam
Ho il sospetto che non sia un buon esempio
Fa#m                   Lam
camminare a un metro e mezzo da terra

Molto spesso una crisi ? tutt'altro che folle
? un eccesso di lucidit?
Sta finendo la crisi e ogni volta che passa una crisi
resta qualche traccia

Infatti ultimamente rido per niente
e non mi nascondo pi? facilmente
e malgrado sembri male
cambia solo il modo di giudicare

Sto vivendo una crisi e una crisi c'? sempre
ogni volta che qualc
Comments