Blur - Trouble In The Message Centre Chords & Tabs

 

Trouble In The Message Centre Chords & Tabs

Blur Chords & Tabs

Version: 2 Type: Bass Tab 0 ratings
1 star 2 stars 3 stars 4 stars 5 stars
comments

Trouble In The Message Centre Bass Tab

Blur
Bass line to "Trouble In The Message Centre"
Provided by: Steve Hunnie  and me.


Intro/chorus:

G|----------------------------------------------------    
D|--------------3------------6-6-6-4-----1------------ 2x 
A|------------4---4---6-4-6----------6-2---2---2-4-2--   
E|--6-6-6-4-6-----------------------------------------   

G|-----------------
D|-----------------
A|----2/7\---4/9\--
E|--0------2-------


Verses:
[ Tab from: http://www.guitartabs.cc/tabs/b/blur/trouble_in_the_message_centre_btab_ver_2.html ]
G|---------------------------------------
D|---------------------------------------
A|--------------------44444444-66666666--
E|-33333333-55555555---------------------


Middle:

G|----------------------------------------------------    
D|--------------4------------7-7-7-5-----2------------ 8x 
A|------------5---5---7-5-7----------7-3---3---3-5-3--   
E|--7-7-7-5-7-----------------------------------------   

G|-----------------
D|-----------------
A|----2/7\---4/9\--
E|--0------2-------




Comments