Blur - Trimm Trabb Chords & Tabs

 

Trimm Trabb Chords & Tabs

Blur Chords & Tabs

Version: 1 Type: Tab 0 ratings
1 star 2 stars 3 stars 4 stars 5 stars
comments

Trimm Trabb Tab

   
#----------------------------------PLEASE
NOTE---------------------------------#
#This file is the author's own work and represents their interpretation of the
#
#song. You may only use this file for private study, scholarship, or research.
#
#------------------------------------------------------------------------------#



SONG: Trimm trabb
GROUP: blur
ALBUM: 13
TABBED BY: Diego López (diegolopez@altavista.net) 

This is my first tab, so, if you see anything wrong here, send me an email to:

diegolopez@altavista.net
You can find this tab in tabweb, the best guitar tab archive, 
with more than 250 groups and 5000 tabs, new tabs added every week, 
chat, english and spanish version (I´m spanish) and more!!


Th song starts with chords Maj7 like this:

A A# B A B A# F
e|-0-0--0--0---0-0--0--0--0--|
b|-5-5--6--8---5-5--8--5--1--|
g|-6-6--7--9---6-6--9--6--2--|
d|-7-7--8--10--7-7--10-7--3--|
a|-7-7--8--10--7-7--10-7--3--|
E|-0-0--0--0---0-0--0--0--0--|

These chords are repited a few times. Then, the singer starts to sing this
part:


I got no style
I'll take my time
All those losers on the piss again
I dose dose away

That's just the way it is
That's just the way it is

I've got trimm trabb
Like the flash boys have
And I can't go back

Here starts this part of chords:

F F F F 
e|-0-0--0-0--0-0--0-0--|
b|-1-1--1-1--1-1--1-1--|
g|-2-2--2-2--2-2--2-2--|
d|-3-3--3-3--3-3--3-3--|
a|-3-3--3-3--3-3--3-3--|
E|-0-0--0-0--0-0--0-0--|

...Let it flow...

[ Tab from: http://www.guitartabs.cc/tabs/b/blur/trimm_trabb_tab.html ]
E E E E
e|-0-0--0-0--0-0--0-0--x-|
b|-0-0--0-0--0-0--0-0--x-|
g|-1-1--1-1--1-1--1-1--x-|
d|-2-2--2-2--2-2--2-2--x-|
a|-2-2--2-2--2-2--2-2--x-|
E|-0-0--0-0--0-0--0-0--x-|

let it flow...

F G F G 
e|-0-0--0-0--0-0--0-0--|
b|-1-1--2-2--1-1--2-2--|
g|-2-2--3-3--2-2--3-3--|
d|-3-3--4-4--3-3--4-4--|
a|-3-3--4-4--3-3--4-4--|
E|-0-0--0-0--0-0--0-0--|

I sleep alone
I sleep alone

Then strats again the first part (play this with a hard distorsion):

A A# B A B A# F
e|-0-0--0--0---0-0--0--0--0--|
b|-5-5--6--8---5-5--8--5--1--|
g|-6-6--7--9---6-6--9--6--2--|
d|-7-7--8--10--7-7--10-7--3--|
a|-7-7--8--10--7-7--10-7--3--|
E|-0-0--0--0---0-0--0--0--0--|

That's just the way it is
Just the way it is
Just the way it is
Just the way it is
Just the way it is
That's just the way it is

I got trimm trabb
Like the flash boys have
And I can't go back

And the second part too:

F F F F 
e|-0-0--0-0--0-0--0-0--|
b|-1-1--1-1--1-1--1-1--|
g|-2-2--2-2--2-2--2-2--|
d|-3-3--3-3--3-3--3-3--|
a|-3-3--3-3--3-3--3-3--|
E|-0-0--0-0--0-0--0-0--|

...Let it flow...


E E E E
e|-0-0--0-0--0-0--0-0--x-|
b|-0-0--0-0--0-0--0-0--x-|
g|-1-1--1-1--1-1--1-1--x-|
d|-2-2--2-2--2-2--2-2--x-|
a|-2-2--2-2--2-2--2-2--x-|
E|-0-0--0-0--0-0--0-0--x-|

let it flow...

F G F G 
e|-0-0--0-0--0-0--0-0--|
b|-1-1--2-2--1-1--2-2--|
g|-2-2--3-3--2-2--3-3--|
d|-3-3--4-4--3-3--4-4--|
a|-3-3--4-4--3-3--4-4--|
E|-0-0--0-0--0-0--0-0--|

I sleep alone

F G F G 
e|-0-0--0-0--0-0--0-0--|
b|-1-1--2-2--1-1--2-2--|
g|-2-2--3-3--2-2--3-3--|
d|-3-3--4-4--3-3--4-4--|
a|-3-3--4-4--3-3--4-4--|
E|-0-0--0-0--0-0--0-0--|

I sleep alone


This is just all!!, enjoy with it, and visit tabweb!
Comments