Blur - The Universal Chords & Tabs

 

The Universal Chords & Tabs

Blur Chords & Tabs

Version: 2 Type: Bass Tab 0 ratings
1 star 2 stars 3 stars 4 stars 5 stars
comments

The Universal Bass Tab

Blur
Bass line to "The Universal"
Provided by Richard Spiller  and me.

Verse:

G ----------------------------    ------h---7-6----h--7-6--
D ------h--6--------7--6-4-2-- 4x -----7-9--------7-9------
A --0--7-9----7--0------------    --7-----------7----------
E ----------------------------    -------------------------

Chorus:
[ Tab from: http://www.guitartabs.cc/tabs/b/blur/the_universal_btab_ver_2.html ]
G ---------------------------------------------------
D ------/7--------7---------------/7-------7---------
A --0-0-----0-0-5---7--5-7-0--0-0----0-0-5---5--7-7--
E ---------------------------------------------------

G ------------------------------------------
D ------------4-----------------------------
A -4--4----7------5-5--4-4--2-2---2-2-2-----
E ---------------------------------------0--




Comments