Blur - Song 2 Chords & Tabs

 

Song 2 Chords & Tabs

Blur Chords & Tabs

Version: 5 Type: Tab 0 ratings
1 star 2 stars 3 stars 4 stars 5 stars
comments

Song 2 Tab

   
Blur,Song #2.
Tabbed by Jordi Oliveres,jordoman@yahooo.com.
  
Depending on the singers voice the guitar is a tone or a semitone lower.


e----------------------------
b----------------------------
g---------------9-9-11-13-13-13
d-11-11-9-9-9---7-7-9--11-11-11
a-9--9--7-7-7----------------
e----------------------------

PLay that twice then with heavy distortion

WOOHOO!!!

e------------------------
b------------------------
g------------------------
d-------------2-2-4-6-6-6
a-4-4-4-2-2-2-0-0-2-4-4-4
e-2-2-2-0-0-0------------
[ Tab from: http://www.guitartabs.cc/tabs/b/blur/song_2_tab_ver_5.html ]
Do this  four times then while the singing until the Woohoo!!! play the first part and until All of the time but I´m never sure when I  need you pleased to meet you you play the second part and on the All of the time but I´m never sure when I  need you pleased to meet you play

e--------------------------------------------------
b--------------------------------------------------
g--------------------------------------------------
d---------------------------------7-7-7-7-7-7-7-7-6
a-4-4-4-4-4-4-4-4-7-7-7-7-7-7-7-7-5-5-5-5-5-5-5-5-4
e-2-2-2-2-2-2-2-2-5-5-5-5-5-5-5-5------------------

After the pleased to meet you just do the distortion part twice but in the first two parts instead of playing them three times play them twice and at the end do the same but play the whole four times instead of two listen to nthe song and you´ll get it) any other thing you hear is with bass.
 
: Ultimate Guitar Archive :: 
http://www.ultimate-guitar.com
Comments