Blur - Song 2 Chords & Tabs

 

Song 2 Chords & Tabs

Blur Chords & Tabs

Version: 14 Type: Tab 0 ratings
1 star 2 stars 3 stars 4 stars 5 stars
comments

Song 2 Tab

   
Blur Song 2

This song is basic power chords for the intro and simple cords for the chorus.
Play the chorus with more distortion than the intro for best results. This can be
made easy with the use of a stompbox or a distortion pedal.

Tabbed by (sic)ness

Tuning = Drop D tuning

E
B
G
D
A
D


Intro Riff: Played twice

E---------------------------------------------------------
B---------------------------------------------------------
G--10-10--8-8--13-13--15--17-17-17------------------------
D--10-10--8-8--13-13--15--17-17-17------------------------
A--8-8----6-6--11-11--13--15-15-15------------------------
D---------------------------------------------------------

Chorus with heavy distortion: Played 4 times

E---------------------------------------------------------
B---------------------------------------------------------
G---------------------------------------------------------
D--3-3--1-1-6-6-8-10--10-10-10----------------------------
A--3-3--1-1-6-6-8-10--10-10-10----------------------------
D--3-3--1-1-6-6-8-10--10-10-10----------------------------

Second riff: Played 4 times
[ Tab from: http://www.guitartabs.cc/tabs/b/blur/song_2_tab_ver_14.html ]
E---------------------------------------------------------
B---------------------------------------------------------
G--10-10--8-8--13-13--15--17-17-17------------------------
D--10-10--8-8--13-13--15--17-17-17------------------------
A--8-8----6-6--11-11--13--15-15-15------------------------
D---------------------------------------------------------

Chorus: Played 4 times

E---------------------------------------------------------
B---------------------------------------------------------
G---------------------------------------------------------
D--3-3--1-1-6-6-8-10--10-10-10----------------------------
A--3-3--1-1-6-6-8-10--10-10-10----------------------------
D--3-3--1-1-6-6-8-10--10-10-10----------------------------

Third riff: Played 4 times

E---------------------------------------------------------
B---------------------------------------------------------
G--10-10--8-8--13-13--15--17-17-17------------------------
D--10-10--8-8--13-13--15--17-17-17------------------------
A--8-8----6-6--11-11--13--15-15-15------------------------
D---------------------------------------------------------

Chorus: Played 4 Times

E---------------------------------------------------------
B---------------------------------------------------------
G---------------------------------------------------------
D--3-3--1-1-6-6-8-10--10-10-10----------------------------
A--3-3--1-1-6-6-8-10--10-10-10----------------------------
D--3-3--1-1-6-6-8-10--10-10-10----------------------------
Comments