Blur - Song 2 Chords & Tabs

 

Song 2 Chords & Tabs

Blur Chords & Tabs

Version: 12 Type: Tab 0 ratings
1 star 2 stars 3 stars 4 stars 5 stars
comments

Song 2 Tab

   
#----------------------------------PLEASE NOTE--------------------------------#
#This file is the author's own work and represents their interpretation of the#
#song. You may only use this file for private study, scholarship, or research.#
#-----------------------------------------------------------------------------#
#-- File created with Instab - http://www.pconline.com/~smcarey/instab.html --#
#-----------------------------------------------------------------------------#

Author/Artist: Blur
Title: Song 2
Transcribed by: Saverain
v strum down
^ strum up
/ slide up
\ slide down

Key Hints:

For the intro/verse strum close to the nut and use your ring finger to press
down on the two bottom notes in the power chords, like a small
bar & your index finger is on the top notes in the chords.

G2 chorus riff is highly distorted.

Guitar actually places chorus riff during Riff 1 but I arranged the bass for guitar.

Standard Tuning

---------|-------------------------------------------------------|------------|
---------|-------------------------------------------------------|------------|
---------|-10--10---------------13--13--13------17---17--17--17--|------------|
---------|-10--10---8-8--8--8---13--13--13--15--17---17--17--17--|------------|
---------|-8---8----6-6--6--6---11--11--11--13--15---15--15--15--|------------|
---------|-------------------------------------------------------|------------|
  G1 Intro ^   v    ^ v  v  v   ^   v   v   v   v    ^   v   v

---------|-------------------------------------------------------------------|
---------|-------------------------------------------------------------------|
---------|-13--13--13--13---13--13--13--13--13--13--13--13--13----13---13----|
---------|-x---x---x---x----x---x---x---x---x---x---x---x---x-----x----x-----|
---------|-11--11--11--11---11--11--11--11--11--11--11--11--11----11---11----|
---------|-------------------------------------------------------------------|
  G1 Chorusv   ^   v   ^    ^   v   ^   v   ^   v   ^   v   ^     ^    v

---------|-----------------------------------------------|--------------------|
---------|-----------------------------------------------|--------------------|
---------|-----------------------------------------------|--------------------|
---------|-10-10-10---8--8--8---13-13-15-17---17--17--17-|--------------------|
---------|-8--8--8----6--6--6---11-11-13-15---15--15--15-|--------------------|
---------|-8--8--8----6--6--6---11-11-13-15---15--15--15-|--------------------|
  G2 Chorusv  ^  v    v  ^  v   v  ^  v  ^    ^   v   v

---------|--------------------------------------------------------------------|
---------|--------------------------------------------------------------------|
---------|--------------------------------------------------------------------|
---------|-10-10-10-10-10-10-10-10-13-13-13-13-13-13-13-13-3-3-3-3-3-3-3-3-3--|
---------|-8--8--8--8--8--8--8--8--11-11-11-11-11-11-11-11-4-4-4-4-4-4-4-4-4--|
---------|-8--8--8--8--8--8--8--8--11-11-11-11-11-11-11-11-4-4-4-4-4-4-4-4-4--|
  Mid part
[ Tab from: http://www.guitartabs.cc/tabs/b/blur/song_2_tab_ver_12.html ]
------------|-----------------------------------------------------------------|
------------|-----------------------------------------------------------------|
------------|-----------------------------------------------------------------|
-3-3--------|-----------------------------------------------------------------|
-4-4-4-4/6\-|-----------------------------------------------------------------|
-4-4--------|-----------------------------------------------------------------|


--------------------------|------------------------------|--|-----------------|
--------------------------|------------------------------|--|-----------------|
--------------------------|------------------------------|--|-----------------|
--------------------------|-------------------3-5--5-5-5-|2x|-----------------|
--------------------------|-3-/-5\3/5\3-/-6-6-1-3--3-3-3-|--|-----------------|
--------------------------|-1-/-3\1/3\1-/-4-4-1-3--3-3-3-|--|-----------------|
  Riff 1 Bass Arr. Guitar   v   v ^ v ^   v ^ v ^  ^ v ^

---------|------|------|------------|-----------------------------------------|
---------|------|------|------------|-----------------------------------------|
---------|------|------|------------|-----------------------------------------|
---------|------|------|------------|-----------------------------------------|
---------|------|------|------------|-----------------------------------------|
---------|------|------|------------|-----------------------------------------|
          Verse  Chorus  Riff 1 (2x)

---------|------------------------------|------------------------------------|
---------|------------------------------|------------------------------------|
---------|------------------------------|------------------------------------|
---------|------------5------3-5--5-5-5-|-------------5------3-5--5-5-\-3----|
---------|-3-/-5/3\6--3--6-6-1-3--3-3-3-|-3-/-5\3/6\3-3--6-6-1-3--3-3-\-3----|
---------|-1-/-3/1\4--3--4-4-1-3--3-3-3-|-1-/-3\1/4\1-3--4-4-1-3--3-3-\-1----|

Version 2

Outro Bass Arr. for Guitar


v strum down
^strum up
D  TUNING
------|-------------------------------------|---------|----|
------|----------------x-x-9-9/11-----------|-x-x-x-x-|-10-|
------|-10-10----8-8-8-x-x-8-8/10/12--12-12-|-x-x-x-x-|-10-|
------|-10-10----8-8-8-x-x-6-6/8-/10--10-10-|-x-x-x-x-|-10-|
------|----------6-6-6-x-x-6-----/10--10-10-|-x-x-x-x-|-8--|
------|-------------------------------------|---------|----|
        v  v     v v v v ^ v v v  ^   ^  v    v ^ v ^ con

--------------------------------------------|--------------|
-10-x-x-8-8--8-x-x-9-9/11-----------x-x-x-x-|--------------|
-10-x-x-8-8--8-x-x-8-8/10/12--12-12-x-x-x-x-|-5-5-5-5-3-3--|
-10-x-x-8-8--8-x-x-6-6/8-/10--10-10-x-x-x-x-|-3-3-3-3-1-1--|
-8--x-x-6-6--6-x-x-6-6/8-/10--10-10-x-x-x-x-|-3-3-3-3-1-1--|
--------------------------------------------|-3-3-3-3-1-1--|
   ver quik                        chorus>    v ^ continu
-----------------------|----|-----------------------------|
-----------------------|----|-----------------------------|
--3-3------------------|----|-5-5-5-5-5-5-5-5-------------|
--1-1-6-6-8/10-10-10-0-|-3x-|-3-3-3-3-3-3-3-3-6-6-6-6-6-6-|
--1-1-6-6-8/10-10-10-0-|----|-3-3-3-3-3-3-3-3-6-6-6-6-6-6-|
--1-1-6-6-8/10-10-10---|----|-3-3-3-3-3-3-3-3-6-6-6-6-6-6-|
      v ^ v ^  ^  v  ^        v ^

-------------------------------------|---------------------|
-------------------------------------|---------------------|
-----3-3-3-3-3-3-3-3-3-3-3-3-3-3-3-3-|---------------------|
-6-0-1-1-1-1-1-1-1-1-1-1-1-1-1-1-1-1-|-3---------3-3-6-6-8-|
-6-0-1-1-1-1-1-1-1-1-1-1-1-1-1-1-1-1-|-3-6p3-6p3-3-3-6-6-8-|
-6-0-1-1-1-1-1-1-1-1-1-1-1-1-1-1-1-1-|-3-5p3-5p3-3-3-6-6-8-|
                                       v v   v   v ^

-------------|---|
-------------|---|
-------------|---|
-/10-10-10-0-|2x-|
-/10-10-10-0-|---|
-/10-10-10-0-|---|
Comments