Blur - Song 2 Chords & Tabs

 

Song 2 Chords & Tabs

Blur Chords & Tabs

Version: 11 Type: Tab 0 ratings
1 star 2 stars 3 stars 4 stars 5 stars
comments

Song 2 Tab

Artist: Blur
Song: Song 2
Album: The Best of Blur
Tuning: Normal

Well here it is, nothing really complicated just damn loadsa repeats but its a good song. Just listen to the song to figure the timing and rythym out.

Not much notation either:

-x- : muffled strings


Intro.(clean): (x2)
E----------------------------------------------------
B----------------------------------------------------
G----------------------------------------------------
D--x-10-10-xx-8-8-8-xx--13-13-15-17--17-17-17-17-----
A--x-8--8--xx-6-6-6-xx--11-11-13-15--15-15-15-15-----
E----------------------------------------------------
                                          
Verse:
Fig.1(dist): (x4)
E----------------------------------------------------
B----------------------------------------------------
G----------------------------------------------------
D--10-10-10-10-8-8-8-8---13-13-15-17--17-17-17-17----
A--8--8--8--8--6-6-6-6---11-11-13-15--15-15-15-15----
E--8--8--8--8--6-6-6-6---11-11-13-15--15-15-15-15----
  -hoo                                      Whoo-


Then repeat intro (x4)with the words:

I got my head checked
by a jumbo jet
It wasn't easy
but nothing is....no-Whoo

Chorus: (x3)
E----------------------------------------------------
B----------------------------------------------------
G----------------------------------------------------
D--10-10-10-10--8-8-8-8---13-13-15-17--17-17-17-17--- 
A--8--8--8--8---6-6-6-6---11-11-13-15--15-15-15-15---
E--8--8--8--8---6-6-6-6---11-11-13-15--15-15-15-15---

Chorus lyrics:

When i feel heavy metal, whoo-hoo,
and i'm pins and i'm needles, whoo-hoo,
well i lie and i'm easy
[ Tab from: http://www.guitartabs.cc/tabs/b/blur/song_2_tab_ver_11.html ]
then play on 4th time:
E----------------------------------------------------
B----------------------------------------------------
G----------------------------------------------------
D--10-10-10-10--10-10-10-10--13-13-13-13--13-13-13-13
A--8--8--8--8---8--8--8--8---11-11-11-11--11-11-11-11
E--8--8--8--8---8--8--8--8---11-11-11-11--11-11-11-11
   all of the time but i'm    never sure why i need

Interlude.1:
E----------------------------------------------------
B----------------------------------------------------
G----------------------------------------------------
D--3-3-3-3----3-3-3-3----3-3-3-3----3-3-3-3----------
A--4-4-4-4----4-4-4-4----4-4-4-4----4-4-4-4----------
E--4-4-4-4----4-4-4-4----4-4-4-4----4-4-4-4----------
   you.               pleased to meet you 

Then play Fig.1 (x2)

Then play Intro (x4) with words for verse 2:

I got my head down,
when i was young,
it's not my problem,
it's not my problem.

Then repeat chorus (x1)

Then play interlude.1 again (x1)

Then Fig.1 (x2)

Then outro:
E-------------------------------------------------------
B-------------------------------------------------------
G-------------------------------------------------------
D--10-10-10-10--8-8-8-8---13-13-15-17--17-17-17-17------
A--8--8--8--8---6-6-6-6---11-11-13-15--15-15-15-15------
E--8--8--8--8---6-6-6-6---11-11-13-15--15-15-15-15------
 Yeah, yeah                                yeah, yeah

E-------------------------------------------------------
B-------------------------------------------------------
G-----------------------------------------------------3-
D--10-10-10-10--8-8-8-8--13-13-15-17--17-17-17-17-10----
A--8--8--8--8---6-6-6-6--11-11-13-15--15-15-15-15-8-----
E--8--8--8--8---6-6-6-6--11-11-13-15--15-15-15-15-8-----
                                            Oh,     yeah.

And that's it guys!!!
Comments