Blur - Song 2 Chords & Tabs

 

Song 2 Chords & Tabs

Blur Chords & Tabs

Version: 5 Type: Bass Tab 0 ratings
1 star 2 stars 3 stars 4 stars 5 stars
comments

Song 2 Bass Tab

This song has lots of distortion so if you have a pedal, use it.  especially on Riff 3.


RIFF 1
G------------------------------
D------------------------------
A------------00--2--4-(LET RING)
E-2222-0000--------------------

RIFF 2
G---------------------------------------------
D---------------------------------------------
A-------------------555555555555--88-12-5-----
E-22222222-55555555---------------------------
[ Tab from: http://www.guitartabs.cc/tabs/b/blur/song_2_btab_ver_5.html ]
RIFF 3
G---2--2-------------
D-4--4--4------------
A----------00--2--4--
E--------------------

RIFF 1 (4X)
SILENT
RIFF 1 (3X)
RIFF 2 (1X)
RIFF 1 (2X)
SILENT
RIFF 1 (3X)
RIFF 2 (1X)
RIFF 3 (4X)

I got my head shaved
By a jumbo jet
It wasn't easy
But nothing is, no
 
Woo Hoo
When I feel heavy metal
Woo Hoo
And I'm pins and needles
Woo Hoo 
Well I lie and I'm easy
All of the time but I'm never sure when I need you
Please to meet you

I got my head done
When I was young
It's not my problem
It's not my problem
Comments