Blur - Song 2 Chords & Tabs

 

Song 2 Chords & Tabs

Blur Chords & Tabs

Version: 2 Type: Bass Tab 0 ratings
1 star 2 stars 3 stars 4 stars 5 stars
comments

Song 2 Bass Tab

Song: Song 2
Artist: Blur
Tuning: Dropped half a step

Intro is just drums and then guitar.

First chorus:
Gb:----------------------------------|
Db:----------------------------------|
Ab:------- 0024-444---------0024-444-|
Eb:22220000---------22220000---------|

Gb:-----------------------------------|
Db:-----------------------------------|
Ab:------- 0024-444---------0024-444--|
Eb:22220000---------22220000---------2|

Second chorus:
Gb:----------------------------------|
Db:----------------------------------|
Ab:------- 0024-444---------0024-444-|
Eb:22220000---------22220000---------|

Gb:------------------------------------------------|
Db:----------------4444444477777777------------2>6>|
Ab:--------0024-444----------------555555555555----|
Eb:22220000----------------------------------------|
[ Tab from: http://www.guitartabs.cc/tabs/b/blur/song_2_btab_ver_2.html ]
Gb:--2-2-2-----------2-2-2-----------|
Db:4--4-4-4--------4--4-4-4----------|
Ab:--------0024-444--------0024-444--|
Eb:---------------------------------2|

Third chorus: 
Gb:----------------------------------|
Db:----------------------------------|
Ab:------- 0024-444---------0024-444-|
Eb:22220000---------22220000---------|

Gb:------------------------------------------------|
Db:----------------4444444477777777------------2>6>|
Ab:--------0024-444----------------555555555555----|
Eb:22220000----------------------------------------|

Gb:--2-2-6-----------2-2-6----------|
Db:4--4-4----------4--4-4-----------|
Ab:--------0024-444--------0024-444-|
Eb:---------------------------------|

Gb:--2-2-6-----------2-2-6-----------| 
Db:4--4-4----------4--4-4------------|
Ab:--------0024-444--------0024-444--|
Eb:---------------------------------2|

I just tabbed out the whole thing cause i couldnt be arsed 
doing all the song order and all that crap.
If you wanna chat or just bitch about me or whatever then
email me at spanking_dude182@hotmail.com
Comments