Blur - Shes So High Chords & Tabs

 

Shes So High Chords & Tabs

Blur Chords & Tabs

Version: 1 Type: Tab 0 ratings
1 star 2 stars 3 stars 4 stars 5 stars
comments

Shes So High Tab

BLUR
SHE'S SO HIGH

INTRO:
E--3
B--3
G--0
D--2
A--3

MAIN:
E------2--------h-p---
B------3-------0-1-0--
G----2----------------3x
D--0--------2---------
A--------0-3----------
E---------------------
[ Tab from: http://www.guitartabs.cc/tabs/b/blur/shes_so_high_tab.html ]
E------------h-p----3----------------------
B------2----2-3-2-3------------------------
G------2-----------------------------------
D----2---------------------0-----0-----0---
A--0------0------------0-2---0-2---0-2-----
E--------------------3---------------------
THE INTRO ON THE CHORDS WAS A LITTLE messy, SO I MADE IT CLEARER.
IF YOU WANT MORE GUITAR TABS, CHECK THE TAB FOR "COFFEE AND TV2.tab"
THERE IS A website link ON THERE.
Comments