Blur - Repetition Chords & Tabs

 

Repetition Chords & Tabs

Blur Chords & Tabs

Version: 2 Type: Bass Tab 0 ratings
1 star 2 stars 3 stars 4 stars 5 stars
comments

Repetition Bass Tab

Blur
Bass for "Repetition" (From the album "Leisure")


Intro:

G --------------------------------
D -------------------------------- 4 
A -(4)---------------------------- x
E -----5--5-3--3-0-0-0-0-3-3-4-4--

Verse:

G ---------------------------- 
D ----------------------------  
A ----------------------------
E --5--5-3--3-2--2-0-0-0-2-3--


G -----------------------------   ----------------------------
D ----------------------------- 2 ----------------------------
A ----------------------------- x ----------------------------
E --5--5-3--3-0-0-0-0-3-3-4-4--   -5--5-3--3-5-5-5-5-5-5-5-5--

[ Tab from: http://www.guitartabs.cc/tabs/b/blur/repetition_btab_ver_2.html ]
G -----------------------------   ----------------------------h---
D ----------------------------- 3 ------------------------h--5-6--
A ----------------------------- x -----------------------5-7------
E --5--5-3--3-0-0-0-0-3-3-4-4--   -5--5-3--3-5-5-5-5-5-5----------

Chorus:

G ----------------------------------
D ----------------------------------
A --------------------------h---h---
E --0-0-2-2-5---0-0-2-2-5--5-7-5-7--

G ------------------------------h--------------------------
D -------------------------h---5-7-------------------------
A ------------------------5-6------------------------------
E --7-7-3-3-5--7-7-3-3-5-------------0-0-2-2-5--0-0-2-2-5--


End of second chorus:


G -----------------------------------
D --5-5-5-5-5-5-5-5------------------
A --------------------------7-9-7-9--
E ------------------3-3-3-3----------




Comments