Blur - Parklife Chords & Tabs

 

Parklife Chords & Tabs

Blur Chords & Tabs

Version: 1 Type: Tab 0 ratings
1 star 2 stars 3 stars 4 stars 5 stars
comments

Parklife Tab

   
-------------------------------------------------------------------------------
			     parklife - Blur
-------------------------------------------------------------------------------
Tabbed by:liamgallagher94
Email:fuku@hotmail.com
[ Tab from: http://www.guitartabs.cc/tabs/b/blur/parklife_tab.html ]
Tuning:E A D G B E
    intro & verse          listen to song for the rythm.
e|-0------------------0---------------------------------------------------------------|
B|-0--------14--------0---------------------------------------------------------------|
G|-13-------14--x2----14--------------------------------------------------------------|
D|-14--x5---14--------14--x-1---------------------------------------------------------|
A|-14-----------------0---------------------------------------------------------------|
E|-0------------------0---------------------------------------------------------------|
    Chorus repeat twice.
e|------------------------------------------------------------------------------------|
B|------------------------------------------------------------------------------------|
G|------------------------------------------------------------------------------------|
D|------------------------------------------------------------------------------------|
A|--------2---5-slide-7---5----8---9----8----9----------------------------------------|
E|-0---4-----------------------6---7----6----7----------------------------------------|
  Chorus part 2.
e|------------------------------------------------------------------------------------|
B|---------7-------8--------7---------5-----------------------------------------------|
G|--4------7-------9--------7---------5---------4--------7---6---7---8----------------|
D|--5-x2---7--x2---9--x2----7---x2----5---x2----5--------7---7---8---9----------------|
A|--5------5-------7--------5---------3---------5--x2----7---7---8---9----------------|
E|--3-------------------------------------------3--------5---5---6---7----------------|
Comments