Blur - Parklife Chords & Tabs

 

Parklife Chords & Tabs

Blur Chords & Tabs

Version: 1 Type: Bass Tab 1 rating
1 star 2 stars 3 stars 4 stars 5 stars
comments

Parklife Bass Tab

Song:Parklife
Artist:Blur
Album:Parklife
Tabbed by:Oli Ingham(ming_fish@start.com)

Riff one
G------------------
D------------------
A-----1--2--2-1----
E--0------------0--
Riff 2
G------------------
D------------------
A-----1--2--2-1-0--
E--0---------------
[ Tab from: http://www.guitartabs.cc/tabs/b/blur/parklife_btab.html ]
Chorus
G--------------------------------------------------
D----------------------------------------------1-3-
A--10-10-9-9-7-7-5-5-3-3-2-2---------2--2--2-0-----
E----------------------------5-5-4-3---------------

Last verse riff
G----2-3-3-4-4-4-3-2-
D--------------------
A--------------------
E--0-----------------

Comments