Blur - Out Of Time Chords & Tabs

 

Out Of Time Chords & Tabs

Blur Chords & Tabs

Version: 2 Type: Tab 0 ratings
1 star 2 stars 3 stars 4 stars 5 stars
comments

Out Of Time Tab

Blur - Out Of Time       
Tabbed By Barney

This is an easy song to play and sounds spot on excepting the odd note,
i also do a good ‘Help Me’ by the Stereopohnics, Barney


E|-------------------|--------------|----------------|
B|-------------------|--------------|----------------|
G|-------------------|--------------|----------------|
D|--2---2---0---0---0|-----2---2---0|---0---0--------|
A|-------------------|--------------|----------------|
E|0---0---1---1---1--|-1-0---0---1--|-1---1---1------|

E|-------------------|--------------|----------------|
B|-------------------|--------------|----------------|
G|-------------------|--------------|----------------|
D|--2---2---0---0---0|-----2---2---0|---0---0--------|
A|-------------------|--------------|----------------|
E|0---0---1---1---1--|-1-0---0---1--|-1---1---1------|

E|-------------------|--------------|----------------|
B|-------------------|--------------|----------------|
G|-------------------|--------------|----------------|
D|--2---2---0---0---0|-----2---2---0|---0---0--------|
A|-------------------|--------------|----------------|
E|0---0---1---1---1--|-1-0---0---1--|-1---1---1------|

E|-------------------
B|-------------------
G|-------------------
D|--2---2---0---0---0
A|-------------------
E|0---0---1---1---1--

E|-------------------|--------------|----------------|----------
B|-------------------|--------------|----------------|----------
G|------------2---2--|-----0-----2--|-2--------------|----------
D|---2---2--3---3----|---2---2-3---3|----------------|----------
A|-------------------|--------------|----------------|----------
E|-0---0----1--------|-0------------|----------------|----------





E|-------------------|--------------|----------------|----------
B|-------------------|--------------|----------------|----------
G|-----0------2---2--|-----0-----2--|-2--------------|----------
D|---2---2--3---3----|---2---2-3---3|----------------|----------
A|-------------------|--------------|----------------|----------
E|-0-----------------|-0------------|----------------|----------


E|-------------------|--------------|----------------|----------
B|-------------------|--------------|----------------|----------
G|------------2---0--|--------------|-0-----0-----0--|----------
D|---2---2--3---3----|---2---2----3-|-----3-----3----|----------
A|-------------------|----------5---|---5-----5------|----------
E|-0---0----1--------|-0---0--------|----------------|----------




E|-------------------|--------------|----------------|----------
B|-------------------|--------------|----------------|----------
G|------------2---0--|-----------2--|-2-------0-----0|-----0----
D|---2---2--3---3----|---2---2-3---3|-------3-----3--|---3------
A|-------------------|--------------|-----5-----5----|-5--------
E|-0---0----1--------|-0---0--------|---0------------|----------


E|-------------------|--------------|----------------|----------
B|-------------------|--------------|----------------|----------
G|------------2---0--|--------------|-0-----0-----0--|----------
D|---2---2--3---3----|---2---2----3-|-----3-----3----|----------
A|-------------------|----------5---|---5-----5------|----------
E|-0---0----1--------|-0---0--------|----------------|----------

E|-------------------|--------------|----------------|----------
B|-------------------|--------------|----------------|----------
G|------------2---0--|-----------2--|-2-------0-----0|-----0----
D|---2---2--3---3----|---2---2-3---3|-------3-----3--|---3------
A|-------------------|--------------|-----5-----5----|-5--------
E|-0---0----1--------|-0---0--------|---0------------|----------


[ Tab from: http://www.guitartabs.cc/tabs/b/blur/out_of_time_tab_ver_2.html ]
E|-------------------|-1---------1----|-17-16-15-14----|--------
B|-------------------|-1---------1----|----------------|--------
G|-5-5-5-7-7-7-5-5-5-|-2-5-5-5-5-2----|----------------|--------
D|-5-5-5-7-7-7-5-5-5-|-3-5-5-5-5-3----|----------------|--------
A|-3-3-3-5-5-5-3-3-3-|-3-3-3-3-3-3----|----------------|--------
E|-------------------|-1---------1----|----------------|--------

 E|-------------------|-------------|----------------|----------
 B|-------------------|-------------|----------------|----------
 G|-5-5-5-5-5-5-5-5-5-|------7------|-7--------------|---------
 D|-5-5-5-5-5-5-5-5-5-|------7------|-7--------------|---------
 A|-3-3-3-3-3-3-3-3-3-|------5------|-5--------------|---------
 E|-------------------|-------------|----------------|----------

E|-------------------|-1---------1----|-17-16-15-14----|--------
B|-------------------|-1---------1----|----------------|--------
G|-5-5-5-7-7-7-5-5-5-|-2-5-5-5-5-2----|----------------|--------
D|-5-5-5-7-7-7-5-5-5-|-3-5-5-5-5-3----|----------------|--------
A|-3-3-3-5-5-5-3-3-3-|-3-3-3-3-3-3----|----------------|--------
E|-------------------|-1---------1----|----------------|--------

 E|-------------------|-------------|----------------|----------
 B|-------------------|-------------|----------------|----------
 G|-5-5-5-5-5-5-5-5-5-|------7------|-7--------------|---------
 D|-5-5-5-5-5-5-5-5-5-|------7------|-7--------------|---------
 A|-3-3-3-3-3-3-3-3-3-|------5------|-5--------------|---------
 E|-------------------|-------------|----------------|----------

solo

E|-------------------|--------------|----------------| 
B|-5-8-10-12-12-5-8--|5-------------|-----------5-5--| 
G|-------------------|--5-7-------9-|-7-5-4-4-4------| 
D|-------------------|------5-7-----|----------------| 
A|-------------------|----------7---|----------------| 
E|-------------------|--------------|----------------| 

E|-------------------|--------------|----------------| 
B|-5-8-10-12-12-5-8--|5-------------|----------------| 
G|-------------------|--5-7-------9-|-7-5-4-4-4------| 
D|-------------------|------5-7-----|----------------| 
A|-------------------|----------7---|----------------| 
E|-------------------|--------------|----------------| 


E|-------------------|-1---------1----|-17-16-15-14----|--------
B|-------------------|-1---------1----|----------------|--------
G|-5-5-5-7-7-7-5-5-5-|-2-5-5-5-5-2----|----------------|--------
D|-5-5-5-7-7-7-5-5-5-|-3-5-5-5-5-3----|----------------|--------
A|-3-3-3-5-5-5-3-3-3-|-3-3-3-3-3-3----|----------------|--------
E|-------------------|-1---------1----|----------------|--------

 E|-------------------|-------------|----------------|----------
 B|-------------------|-------------|----------------|----------
 G|-5-5-5-5-5-5-5-5-5-|------7------|-7--------------|---------
 D|-5-5-5-5-5-5-5-5-5-|------7------|-7--------------|---------
 A|-3-3-3-3-3-3-3-3-3-|------5------|-5--------------|---------
 E|-------------------|-------------|----------------|----------

E|-------------------|-1---------1----|-17-16-15-14----|--------
B|-------------------|-1---------1----|----------------|--------
G|-5-5-5-7-7-7-5-5-5-|-2-5-5-5-5-2----|----------------|--------
D|-5-5-5-7-7-7-5-5-5-|-3-5-5-5-5-3----|----------------|--------
A|-3-3-3-5-5-5-3-3-3-|-3-3-3-3-3-3----|----------------|--------
E|-------------------|-1---------1----|----------------|--------

 E|-------------------|-------------|----------------|----------
 B|-------------------|-------------|----------------|----------
 G|-5-5-5-5-5-5-5-5-5-|-------------|-5--------------|---------
 D|-5-5-5-5-5-5-5-5-5-|-------------|-5--------------|---------
 A|-3-3-3-3-3-3-3-3-3-|-------------|-3--------------|---------
 E|-------------------|-------------|----------------|----------
Comments