Blur - Mor Chords & Tabs

 

Mor Chords & Tabs

Blur Chords & Tabs

Version: 1 Type: Tab 0 ratings
1 star 2 stars 3 stars 4 stars 5 stars
comments

Mor Tab

   
M.O.R.
by BLUR
from BLUR




Transcribed by: Frank Moris (incesticide@heaven.dk)

brp = Bend Release Pull-off
 X = Pick while muted with fret-board hand
/X = Pick-scrape

played with distortion.

intro/verse
E|---------------------------------------------|
B|---------------------------------------------|
G|-5-7-7-7-7-5-7-7-7-7-5-7-7-7-7-5-X-X-X-X-X-X-|
D|---------------------------------------------|
A|---------------------------------------------|
e|---------------------------------------------|
Fall into fashion, fall out again, we stick together, `cause it never ends
[ Tab from: http://www.guitartabs.cc/tabs/b/blur/mor_tab.html ]
Chorus
E|---------------------------------------------------------------------------|
B|---------------------------------------------------------------------------|
G|----------6-6-6-6-8-8-8-8-10-10-10-10-13/6-6-6-6-6-8-8-8-8-10-10-10-10-13/6|
D|--------5------------------------------------------------------------------|
A|--------5------------------------------------------------------------------|
e|-/X-X-X-3------------------------------------------------------------------|
1. time: Here comes the low
2. time: comes everything
E|---------------------------------------------------------------------------|
B|---------------------------------------------------------------------------|
G|----------6-6-6-6-8-8-8-8-10-10-10-10-13/6-6-6-6-6-8-8-8-8-10-10-10-10-13/6|
D|--------7------------------------------------------------------------------|
A|--------7------------------------------------------------------------------|
e|-/X-X-X-5------------------------------------------------------------------|
1. time: Here comes the high
2: Here it comes, you, me, weĞll work it out!

E|---------------------------------------|
B|---------------------------------------|
G|-6-8-8-8-8-6-8-8-8-8-6-8-8-8-8-11brp10-|
D|---------------------------------------|
A|---------------------------------------|
e|---------------------------------------|

Bridge/Outro
E|---------------------------------------|
B|---------------------------------------|
G|-6-8-8-8-8-6-8-8-8-8-6-8-8-8-8-11brp10-|
D|---------------------------------------|
A|---------------------------------------|
e|---------------------------------------|
Comments