Blur - Long Legged Chords & Tabs

 

Long Legged Chords & Tabs

Blur Chords & Tabs

Version: 2 Type: Bass Tab 0 ratings
1 star 2 stars 3 stars 4 stars 5 stars
comments

Long Legged Bass Tab

Blur
Bass line for "Long Legged"

                           
Main:
                                                    
G---------------------------------------------------
D---------------------------------------------9-----
A---------8--8--------------------8--8--------------  4x
E---9--9--------9--9--4--4--9--9--------9--9-----4--
                                                                               
                                                         
Verse:                     
[ Tab from: http://www.guitartabs.cc/tabs/b/blur/long_legged_btab_ver_2.html ]
G-------------------------------     -------------------------
D-------------------------------     -------------------------
A------------------------------- 3x  -------------------------
E---9--9--9--9--2--2--2--2--2/--     -9--9--9--9--4--4--4--4--
                                                                               

Chorus:
                                                                               
G---------------------------------------------------
D---------------------------------------------------
A---------------------------------------------9--8-- 2x
E---9--9--9--9--4--4--4--4--2--2--2--2--9--9--------

G----------------------------------------------------
D----------------------------------------------------
A----------------------------------------------------
E----2--2--2--2--2--2--2--2--2--2--2--2--2--2--2--2--
                                                                               

Middle:

G-----------------
D--------9--9-----
A--------------8-- 8x
E--9--------------





Comments