Blur - London Loves Chords & Tabs

 

London Loves Chords & Tabs

Blur Chords & Tabs

Version: 1 Type: Bass Tab 0 ratings
1 star 2 stars 3 stars 4 stars 5 stars
comments

London Loves Bass Tab

Song:London Loves
Artist:Blur
Album:Parklife
Tabbed by:Oli Ingham(ming_fish@start.com)

Verse:
G--------------------------
D--------------------------
A-------6--4---------------
E--3------------3----0--2--
[ Tab from: http://www.guitartabs.cc/tabs/b/blur/london_loves_btab.html ]
Chorus/Ending   Listen carefully for the second part...
G------------------------------------------
D---------------------------p---h-h--------
A--0--0--2-2-2-------0--0--5-4-2-3-4-------
E--------------2--2------------------2--2--

Comments