Blur - Good Song Chords & Tabs

 

Good Song Chords & Tabs

Blur Chords & Tabs

Version: 1 Type: Tab 1 rating
1 star 2 stars 3 stars 4 stars 5 stars
comments

Good Song Tab

   
Tab Notation:
^    = bend up
>    = release bend
< >  = hold bend for notes inside
x    = muted string
/    = slide up
\    = slide down 
~    = hammer on

Main Riff

--8--------------------------------
------------10----------6-/-8------
-----9--9--------7--9----------7---
-----------------------------------
-----------------------------------
-----------------------------------

---------------------------------------
--8---------10-----------/-10---/-9----
-----9--9--------7--7------------------
---------------------------------------
---------------------------------------
---------------------------------------

then at (0:23) strum chords behind

(C) - (Em) - (F) 


PreChorus (0:45)

(Am) - (Bb) 
(Am) - (Bb)

(loosely picked/varying riff)
[ Tab from: http://www.guitartabs.cc/tabs/b/blur/good_song_tab.html ]
--8---x-x-x----8--8--|-------------x-x-xx--8---8----
---------------------|---8-/-10---------------------
---------------------|------------------------------
---------------------|------------------------------
---------------------|------------------------------
---------------------|------------------------------

"You seem very..."
 (Gm7) - strum appropriately
---3-----------------------------------------------------
---3-----------------------------------------------------
---3-----------------------------------------------------
---3-----------------------------------------------------
---5-----------------------------------------------------
---3-----------------------------------------------------


Solo Riff (1:03) - repeat

--------------------------------------------------------
--1---(hold)----1---3---5-(hold)----1-----3----1-(hold)-
--------------------------------------------------------
--------------------------------------------------------
--------------------------------------------------------
--------------------------------------------------------

Great song. Enjoy!!!


Comments