Blur - Crazy Beat Chords & Tabs

 

Crazy Beat Chords & Tabs

Blur Chords & Tabs

Version: 1 Type: Tab 0 ratings
1 star 2 stars 3 stars 4 stars 5 stars
comments

Crazy Beat Tab

Intro/Verse/Chorus
E--------------------------------------
A--------------------------------------
D--------------------------------------
G--8--8--7-7-7--6-6-6--5-5-5--5--5--5--  x3 then:
B--8--8--7-7-7--6-6-6--5-5-5--5--5--5--
E--6--6--5-5-5--4-4-4--3-3-3--3--3--3--
[ Tab from: http://www.guitartabs.cc/tabs/b/blur/crazy_beat_tab.html ]
E---------------------------------
A---------------------------------
D---------------------------------
G-3-3-3-3-3-3-3-3-3-3-3-----------
B-3-3-3-3-3-3-3-3-3-3-3-----------
E-1-1-1-1-1-1-1-1-1-1-1-----------

And then theres this part but with weird Distortion and Wah:
E--------------------------------------
A--------------------------------------
D--------------------------------------
G--8--8--7-7-7--6-6-6--5-5-5--5--5--5--  
B--8--8--7-7-7--6-6-6--5-5-5--5--5--5--
E--6--6--5-5-5--4-4-4--3-3-3--3--3--3--
Comments