Blur - Boys And Girls Chords & Tabs

 

Boys And Girls Chords & Tabs

Blur Chords & Tabs

Version: 2 Type: Bass Tab 0 ratings
1 star 2 stars 3 stars 4 stars 5 stars
comments

Boys And Girls Bass Tab

Blur- Girls and Boys
TAB by DJ Kyurre (kyurre@hotmail.com)
TAB for Bass in Standard tuning
I'm not a Bass Player, and this is my first Bass TAB, and it sounds *** good!

Most of the song is just this riff reapeated , with tiny variation!
1|------------------|------------------|
2|---5--------5-----|---5\-------3-4-5-|
3|------------------|------------------|
4|-3----1-2-3----1-2|-3----1-2-3-------|
[ Tab from: http://www.guitartabs.cc/tabs/b/blur/boys_and_girls_btab_ver_2.html ]
1|---5--------5-----|---3-4-5---5---5\-|
2|------------------|---------3--------|
3|-3----1-2-3----1-2|-3-----------3----|
4|------------------|------------------|

1|------------------|------------------|
2|----3------3------|--3---------------|
3|------------------|------------------|
4|-1-----0^1-------0^1-----5---6---7---|

1|------8\------8\-|------8\-----8-7-8\|
2|-----------------|-------------------|
3|--6-------6------|--6-------6--------|
4|-----------------|-------------------|

And that is it! A Phat ass Bass line from one of the best British bands around!
Comments