Blur - Badhead Chords & Tabs

 

Badhead Chords & Tabs

Blur Chords & Tabs

Version: 2 Type: Bass Tab 0 ratings
1 star 2 stars 3 stars 4 stars 5 stars
comments

Badhead Bass Tab

Song:Badhead
Artist:Blur
Album:Parklife
Tabbed by: Oli Ingham (ming_fish@hotmail.com)

This song is in standard tuning

Main/Verse
G----------------------
D----------------------
A----------------------
E--3--3-3--3--3-3-0-3--

End part of verses
G------------------------
D------------------------
A--1---1-3-1-3---3-3-1-3-
E------------------------
[ Tab from: http://www.guitartabs.cc/tabs/b/blur/badhead_btab_ver_2.html ]
Chorus
G--------------------------5-4-2-|\-2\-2---2--
D--------------------------------|-------3----
A--0--0-5/7-5-5-5---5--3-3-------|------------
E-----------------5--------------|------------

Between chorus and verse
G-------
D-------
A--3-5--
E-------

‘and i know’ part
G----------------------------
D-----3-5-------------3-5----
A--0------0----0---0------3--
E------------3---------------

last verse
G-------------0-0---0--0-0---0--0-0---0--
D-----------------2--------2--------2----
A----------------------------------------
E--3--3-3-0-3----------------------------
Comments