Blunt James - Wisemen Chords & Tabs

 

Wisemen Chords & Tabs

Blunt James Chords & Tabs

Version: 1 Type: Tab 2 ratings
1 star 2 stars 3 stars 4 stars 5 stars
comments

Wisemen Tab

   
Tabbed by: Nick Ward
Song: Wisemen
Artist: James Blunt
Album: Back to Bedlam

Intro

---6--------6--5---------5--------5--3----------------------------------|
------8-----------6---------6-----------5-------------------------------|
---------7-----------7---------5-----------5----------------------------|
------------------------------------------------------------------------|
------------------------------------------------------------------------| X4
------------------------------------------------------------------------|

Chords, percussion & bass join in after intro tab was playing for the 3rd time.
Gm Dm F C



Solo

e:------------------------------------------------------8---8----8--|
B:-----------------------------------------------11--------11b13----|
G:---8vvv----------8-----8---8vvv-----------10b12--b12--------------|
D:---------10vvv---8h10--10---------10--8---------------------------|
A:------------------------------------------------------------------|
E:------------------------------------------------------------------|
[ Tab from: http://www.guitartabs.cc/tabs/b/blunt_james/wisemen_tab.html ]
e:------------------------------------------------------------------|
B:---8--------------------------------------------8vvv--------------|
G:---10b12r10---8—10p8----------------------------8vvv--------------|
D:---------------------10p8-----------------------------10vvv-------|
A:------------------------------------------------------------------|
E:------------------------------------------------------------------|

e:----11-11-11/10—10—10-10/8-8-8-8/6-6-6-6/8-8-8--------------------|
B:----x--x--x/-x--x—-x--x/-x-x-x-x/x-x-x-x/x-x-x---8—-8vvv----------|
G:----8--8--8/-7--7—-7--7/-5-5-5-5/3-3-3-3/5-5-5---8—-8vvv----------|
D:----------------------------------------------------------10vvv---|
A:------------------------------------------------------------------|
E:------------------------------------------------------------------|

e:----11/13---13--13-----11---10---8-----11b13—11—8h11p8-------8-8--|
B:----x/-x----x---x------x----x----x---------------------11b13------|
G:----8/-10---10--10-----8----7----5--------------------------------|
D:------------------------------------------------------------------|
A:------------------------------------------------------------------|
E:------------------------------------------------------------------|

e:------------------------------------------------------------------|
B:----8vvv---------------------------------------11--11/13—13-13vvv-|
G:----8vvv---------------------------8----8h10/12--12---------------|
D:---------10vvv----------8-----8h10---10---------------------------|
A:-----------------6h8/10----10-------------------------------------|
E:--------------6h8-------------------------------------------------|

CHORUS
Cm           Eb
 
           Bb

           F


Any comments, email me at nickward1983@hotmail.com
Comments