Blues Master Brian - Blues Licks Chords & Tabs

 

Blues Licks Chords & Tabs

Blues Master Brian Chords & Tabs

Version: 2 Type: Tab 0 ratings
1 star 2 stars 3 stars 4 stars 5 stars
comments

Blues Licks Tab

   
Here's Some Blues Stuff (Miscellaneous Stuff)
It's a cool rif
By "Blues Master" Brian
                        v       E                  A   G7  E
E|------------------------------0--0---0--0--0-------------0-|
B|---------15b~-r15--13p12~~~---0--0---0--0--0-----2---0---0-|
G|-12~-14~----------------------1--1---1--1--1-----2---0---1-|
D|------------------------------2--2---2--2--2-----2---0---2-|
A|------------------------------2--2---2--2--2-----2---0---2-|
E|------------------------------0--0~--0--0~-0-------------0-|

  E                   A   G7  E
E|-0--0---0--0--0-------------0---------------------------|
B|-0--0---0--0--0-----2---0---0---------------------------|
G|-1--1---1--1--1-----2---0---1---------------------------|
D|-2--2---2--2--2-----2---0---2---------------------------|
A|-2--2---2--2--2-----2---0---2---------------------------|
E|-0--0~--0--0~-0-------------0---------------------------|


  E                  A   G7  E
E|-0--0---0--0--0-------------0---------------------------|
B|-0--0---0--0--0-----2---0---0---------------------------|
G|-1--1---1--1--1-----2---0---1---------------------------|
D|-2--2---2--2--2-----2---0---2---------------------------|
A|-2--2---2--2--2-----2---0---2---------------------------|
E|-0--0~--0--0~-0-------------0---------------------------|
[ Tab from: http://www.guitartabs.cc/tabs/b/blues_master_brian/blues_licks_tab_ver_2.html ]
Keep doin this than try this phatty solo ....

Solo :
E||------------------------------------------------------|
B||-------12--------------------------12-----------------|
G||--14b~~~~--14b~~-14--12--------14b~~~---14-12--14~~---|
D||-------------------------14~~-------------------------|
A||------------------------------------------------------|
E||------------------------------------------------------|

E||-12~~---12~~--15--17b-17b-17b~~--17-16~--12------------|
B||-15b~---------------------------------------15--12-----|
G||---------------------------------------------------14~-|
D||-------------------------------------------------------|
A||-------------------------------------------------------|
E||-------------------------------------------------------|

E||-----------12b-12b-12b~----------------------21b~~----|
B||----------------------------15-----15--12~~-----------|
G||-9~--9/0-----------------14b~~--14b~~-----------------|
D||-9~--9/0----------------------------------------------|
A||------------------------------------------------------|
E||------------------------------------------------------|


E||--12----------------------------------------------------|
B||-----12--15---------------------------------------------|
G||-------------14b-14-12----------------------------------|
D||-----------------------14-------------------------------|
A||---------------------------12---------------------------|
E||------------------------------21b~~---------------------|
Comments