Blues Explosion - Mars Arizona Chords & Tabs

 

Mars Arizona Chords & Tabs

Blues Explosion Chords & Tabs

Version: 1 Type: Tab 0 ratings
1 star 2 stars 3 stars 4 stars 5 stars
comments

Mars Arizona Tab

Band:       Blues Explosion
Song: 	    Mars Arizona
Album:      Damage
Tabbed By:  Phil Cowey

Right i decided to get tabbing the blues explosion stuff, bacuse they are 
so good, now i encourage others to do the same and getting tabbing their songs!
This is pretty much 100% correct, i hope!

Main Riff - Verse
e|----------------------------0--|
b|----------------------------0--|
g|-9-9--76--4-4-4-------------1--|
d|-9-9--76--4-4-4--77-75--2-2-2--|
a|-7-7--54--2-2-2--77-75--2-2-2--|
e|-----------------55-53--0-0-0--|

Chorus Riff
Do this 3 times      then do this for the 4th time
e|-----------------|---------------------------|
b|-----------------|---------------------------|
g|-7--8--9---------|--7s12--12-12---14-14-14---|
d|-7--8--9------2--|--7s10---------------------|
a|-5--6--7--0-0-2--|--5s10--10-10---12-12-12---|
e|(5)(6)(7)-0-0-0--|---------------------------|
[ Tab from: http://www.guitartabs.cc/tabs/b/blues_explosion/mars_arizona_tab.html ]
Post Chorus
e|------------------------------------|
b|------------------------------------|
g|------------------------------------|
d|------------------------------------|
a|-12-10-9-7-5-4-2-0-2-0--------------|
e|------------------------5----3-2-0--|



Solo: its really just using a slide tube and 
playing a sort of sequence like this a couple of times
:S
e|------------------------------------|
b|-12--15--12--15--15-----------------|
g|------------------------------------|
d|------------------------------------|
a|------------------------------------|
e|------------------------------------|

Bridge
e|--------------------|
b|--------------------|
g|--------------------|
d|-9-----------7------|
a|-9-----------7------|
e|-7-----------5------|

e|-----------------|
b|-----------------|
g|-7--8--9---------|
d|-7--8--9------2--|
a|-5--6--7--0-0-2--|
e|(5)(6)(7)-0-0-0--|


End
e|------|
b|------|
g|--9---|
d|--9---|
a|--7---|
e|------|


Song Sequence:
Main Riff    x 2
Chorus Riff  x 2
post chorus  x 1
Main Riff    x 2
Chorus Riff  x 2
post chorus  x 1
Solo
Bridge       x 4
Main Riff    x 1
Chorus Riff  x 4

Any corrections/comments send to  Vash_legato@hotmail.com
Comments