Blues Brothers - Sweet Home Chicago Chords & Tabs

 

Sweet Home Chicago Chords & Tabs

Blues Brothers Chords & Tabs

Version: 2 Type: Tab 0 ratings
1 star 2 stars 3 stars 4 stars 5 stars
comments

Sweet Home Chicago Tab

                     
e-----10-------10-10-9~~~~-----10-------10-10-9-9-~~-7~~------|
B-/12----12-/12------------/12----12-/12--------10~~-8~~------|
G--------------------------------------------------------9~~~-|
D-------------------------------------------------------------|
A-------------------------------------------------------------|
E-------------------------------------------------------------|


e---4------3----2--2----------------|
B-----------------------------------|
G-4---4--3---3--2--2--0~~-0~-1-2~~~-|
D-----------------------------------|
A-----------------------------------|
E-----------------------------------|


[ Tab from: http://www.guitartabs.cc/tabs/b/blues_brothers/sweet_home_chicago_tab_ver_2.html ]
Comments