Blues Brothers - Stand By Your Man Chords & Tabs

 

Stand By Your Man Chords & Tabs

Blues Brothers Chords & Tabs

Version: 1 Type: Bass Tab

Stand By Your Man Bass Tab

It's not on the albums I don't think, but it is in the film. Here's the best bass I 
come up with.

Any problems, email me: kobrakai_1986@hotmail.com

Verse:
[ Tab from: http://www.guitartabs.cc/tabs/b/blues_brothers/stand_by_your_man_btab.html ]
G------------------------------------------------|
D------------------------------------------------|
A-0---2-0-5---0-5-0---0--------------------------|
E---0-------0-------0----------------------------|

Then, when "Stand by your maaaaaaaan" comes in:

G-------------------------------------------------|
D-------------------------------------0-----------|
A-0-4-5-0---2---0-4-5-0---0-----2---0-----0-------|
E---------2---0---------0---4/2---0-----0---------|