Blues Brothers - Soul Man Chords & Tabs

 

Soul Man Chords & Tabs

Blues Brothers Chords & Tabs

Version: 1 Type: Bass Tab 0 ratings
1 star 2 stars 3 stars 4 stars 5 stars
comments

Soul Man Bass Tab

Soul Man - Blues Brothers
                                                      
  intro                 verse riff     chorus            
G|---------------------|--------------|--------------------------------------------------------|
D|---------------------|--------------|--------------------------------------------------------|
A|7---75---5-----------|7-7-----------|77777777555555557777777777777777777777775555555577777777|
E|-------------5---7---|---9975-5-7-9-|--------------------------------------------------------|
[ Tab from: http://www.guitartabs.cc/tabs/b/blues_brothers/soul_man_btab.html ]
 chorus end
G|---------|
D|---------|
A|----/7---|
E|5-9----7-|

there's a part at about 2 minutes that I couldn't get

  solo
G|-----------------------------------------------------|
D|-----------------------------------------------------|
A|9---97--------------999999977777777-------------/9---|
E|---------5--7-7-9-9----------------555555557-11----9-|

  outro riff     end note
G|--------------|------|
D|4-4-----------|4-----|
A|---6642-2-4-6-|------|
E|--------------|2-----|

tabbed by Achilles (blue_sincere@hotmail.com)

Comments