Blues Brothers - She Caught The Katy Chords & Tabs

 

She Caught The Katy Chords & Tabs

Blues Brothers Chords & Tabs

Version: 1 Type: Bass Tab 0 ratings
1 star 2 stars 3 stars 4 stars 5 stars
comments

She Caught The Katy Bass Tab

 |       |       |       |        |       |       |       |        
|----tempo 96--------------------|--------------------------------|
|--------------------------------|--------------------------------|
|--------------------------------|1-------------------------------|
|----------------------------1---|--------------------------------|

 |       |       |       |        |       |       |       |        
|--------------------------------|--------------------------------|
|--------------------------------|--------------------------------|
|--------------------------------|1-------------------------------|
|----------------------------1---|--------------------------------|

 |       |       |       |        |       |       |       |        
|--------------------------------|--------------------------------|
|--------------------------------|--------------------------------|
|--------------------------------|1-------------------------------|
|----------------------------1---|--------------------------------|

 |       |       |       |        |       |       |       |        
|--------------------------------|--------0-----------------------|
|--------------------------------|------------3-------------------|
|--------------------------------|1---1-----------1-1-------------|
|--------------------------------|--------------------3---1---3---|

 |       |       |       |        |       |       |       |        
|--------7-----------------------|--------------------------------|
|------------10------------------|--------------------------------|
|8---8-----------8-8-------------|1---1-----------1-1-------------|
|--------------------10--8---10--|--------3---1-------3---1---3---|

 |       |       |       |        |       |       |       |        
|--------------------------------|--------0-----------------------|
|--------------------------------|------------3-------------------|
|1---1-----------1-1-------------|1---1-----------1-1-------------|
|--------3---1-------3---1---3---|--------------------3---1---3---|

 |       |       |       |        |       |       |       |        
|--------7-----------------------|--------------------------------|
|------------10------------------|--------------------------------|
|8---8-----------8-8-------------|1---1-----------1-1-------------|
|--------------------10--8---10--|--------3---1-------3---1---3---|

 |       |       |       |        |       |       |       |        
|--------------------------------|--------------------------------|
|--------------------------------|--------------------------------|
|1---1-----------1-1-------------|1---1-----------1-1-------------|
|--------3---1-------3---1---3---|--------3---1-------3---1---3---|

 |       |       |       |        |       |       |       |        
|------7-----5-7-----6-7-----7---|----8-------------5-------------|
|----8---------------------------|--------5---6-7-8---8---5-------|
|--------3-------4-------5-------|6-----5---------------------6---|
|6-------------------------------|--------------------------------|

 |       |       |       |        |       |       |       |        
|--------------------5---6-------|------------3-------------------|
|--------6---7---8---------------|----------------0-------1---2---|
|7-------------------------------|1---1---------------------------|
|--------------------------------|--------------------------------|

 |       |       |       |        |       |       |       |        
|--------------------------------|--------------------------------|
|3---3-------3-------3---0-------|--------------------------------|
|--------------------------3-1---|1---1-----------1-1-------------|
|--------------------------------|--------3---1-------3---1---3---|

 |       |       |       |        |       |       |       |        
|--------------------------------|--------------------------------|
|--------------------------------|--------------------------------|
|1---1-----------1-1-------------|1---1-----------1-1-------------|
|--------3---1-------3---1---3---|--------3---1-------3---1---3---|
[ Tab from: http://www.guitartabs.cc/tabs/b/blues_brothers/she_caught_the_katy_btab.html ]
 |       |       |       |        |       |       |       |        
|--------6/----------------------|--------------------------------|
|------------10------------------|--------------------------------|
|8---8-----------8-8-------------|1---1-----------1-1-------------|
|--------------------10--8---10--|--------3---1-------3---1---3---|

 |       |       |       |        |       |       |       |        
|--------------------------------|--------------------------------|
|--------------------------------|--------4/--3-------------------|
|1---1-----------1-1-------------|1---1-----------1-1-------------|
|--------3---1-------3---1---3---|--------------------3---1---3---|

 |       |       |       |        |       |       |       |        
|--------6/----------------------|--------------------------------|
|------------10------------------|--------------------------------|
|8---8-----------8-8-------------|1---1-----------1-1-------------|
|--------------------10--8---10--|--------3---1-------3---1---3---|

 |       |       |       |        |       |       |       |        
|--------------------------------|--------------------------------|
|--------------------------------|--------------------------------|
|1---1-----------1-1-------------|1---1-----------1-1-------------|
|--------3---1-------3---1---3---|--------3---1-------3---1---3---|

 |       |       |       |        |       |       |       |        
|------7-----5-7-----6-------7---|--------------------------------|
|----8---------------------------|------------3-4-5---5-------5---|
|--------3-------4-------5-------|6---6---------------------------|
|6-------------------------------|--------------------------------|

 |       |       |       |        |       |       |       |        
|--------------------5---6-------|--------------------------------|
|--------5-6-7---8---------------|--------------------------------|
|7-------------------------------|------------5-------6-------7---|
|--------------------------------|6---6---------------------------|

 |       |       |       |        |       |       |       |        
|--------------------------------|--------------------------------|
|--------------------------------|--------------------------------|
|8---8-------8---8---8-----------|----------------6---6-------6-6-|
|------------------------10--8---|6---6-------6-------------------|

 |       |       |       |        |       |       |       |        
|--------------------------------|--------------------------------|
|--------------------------------|----------------6/--------------|
|----------------3-------4---5---|6---6-------6-------6-----------|
|6---6---6---6-------------------|------------------------8---6---|

 |       |       |       |        |       |       |       |        
|--------------------------------|--------------------------------|
|--------------------------------|--------------------------------|
|6---6-------6---6---6-----------|--------------------------------|
|------------------------4---5---|6---6-------6---6---6-------4---|

 |       |       |       |        |       |       |       |        
|--------------------------------|--------------------------------|
|--------------------------------|--------------------------------|
|--------------------------------|--------------------------------|
|6---6-------6---6-------6---5-5-|4---4-------4---4---4-------2---|

 |       |       |       |        |       |       |       |        
|--------------------------------|--------------------------------|
|--------------------------------|--------------------------------|
|--------------------------------|--------------------------------|
|4---4-------4---4---4---3---2---|1---1---1---1---1---1---1---1-1-|

 |       |       |       |        |       |       |       |        
|--------------------------------|--------------------------------|
|--------------------------------|--------4/--3-------------------|
|------------------------0-------|1---1-----------1-1-------------|
|1---1---1---1---3---------------|--------------------3---1---3---|

 |       |       |       |        |       |       |       |        
|--------------------------------|--------------------------------|
|-------------this is it, more or less,the rest is yours----------|
|--------------------------------|--------------------------------|
|--------------------------------|--------------------------------|
Comments