Blues Brothers - Peter Gunn Theme Chords & Tabs

 

Peter Gunn Theme Chords & Tabs

Blues Brothers Chords & Tabs

Version: 4 Type: Tab 0 ratings
1 star 2 stars 3 stars 4 stars 5 stars
comments

Peter Gunn Theme Tab

--------------------------|
--------------------------|
--------------------------|
--------------------------|
--------------------------|
---0--0--2--0--3--0--5--4-|

--------------------------|
--------------------------|
--------------------------|
--------------------------|
--------------------------|
---0--0--2--0--3--0--5--4-|

--------------------------|
--------------------------|
--------------------------|
--------------------------|
--------------------------|
---0--0--2--0--3--0--5--4-|
[ Tab from: http://www.guitartabs.cc/tabs/b/blues_brothers/peter_gunn_theme_tab_ver_4.html ]
--------------------------|
--------------------------|
--------------------------|
--------------------------|
--------------------------|
---0--0--2--0--3--0--5--4-|

-------------------------------|
-------------------------------|
-------------------------------|
-------------------------------|
--5----/-2-----5--------/14-/8-|
-------------------------------|

------------------------------|
------------------------------|
------------------------------|
------------------------------|
--2-5-7-8-8-8-8-7-5-2-0-2-----|
--------------------------3-4-|

Play that over and over with some wierd solos.

Happy tabbing!

zeppelinrocks18
Comments