Blues Brothers - I Cant Turn You Loose Chords & Tabs

 

I Cant Turn You Loose Chords & Tabs

Blues Brothers Chords & Tabs

Version: 1 Type: Tab 0 ratings
1 star 2 stars 3 stars 4 stars 5 stars
comments

I Cant Turn You Loose Tab

The Blues Brothers
I Cant Turn You Loose


This is the live version w/ lyrics, i dont have the lyric on this tab but the 
ong should have words to it in this version

the first part is the bass tab
the second part that is high up the 'e' string on the 12th fret is the
trumpets, i tabed them for guitar though

listen to the song for the right parts


e-----------------------------------------
b-----------------------------------------
g-----------------------------------------
d-----------------------------------------
a--3p0---3-0---0--------------------------x8
e------3-----3----------------------------

e-----------------------------------------
b-----------------------------------------
g-----------------------------------------
d--3p0---3-0---0--------------------------
a------3-----3----------------------------x4
e-----------------------------------------

e-----------------------------------------
b-----------------------------------------
g-----------------------------------------
d-----------------------------------------
a--3p0---3-0---0--------------------------x4
e------3-----3----------------------------

e-----------------------------------------
b-----------------------------------------
g-----------------------------------------
d--5p3---5-3---3--------------------------
a------5-----5----------------------------x2
e-----------------------------------------

e-----------------------------------------
b-----------------------------------------
g-----------------------------------------
d--3p0---3-0---0--------------------------
a------3-----3----------------------------x2
e-----------------------------------------

back to first part for the chorus



and here are the trumpets for the chorus

[ Tab from: http://www.guitartabs.cc/tabs/b/blues_brothers/i_cant_turn_you_loose_tab.html ]
e--12-10----12-----------10-12-10---------
b--------13--------10-13----------13-13---
g---------------12------------------------
d-----------------------------------------
a-----------------------------------------
e-----------------------------------------

e--15-13-12-15--------------15-13-12------
b------------------10-13-15---------------
g---------------12------------------------
d-----------------------------------------
a-----------------------------------------
e-----------------------------------------

e--12-13-14-15----------------------------
b-----------------------------------------
g-----------------------------------------
d-----------------------------------------
a-----------------------------------------
e-----------------------------------------

then back to the beginning w/ the bass





after about 3 verses of that at the end of the trumpet part this happends

e--12-12-12-12-12p11-12-13-12-------------
b-----------------------------------------
g-----------------------------------------
d-----------------------------------------x2
a-----------------------------------------
e-----------------------------------------


e--15-15-15-15-15p14-15-17-15-------------
b-----------------------------------------
g-----------------------------------------
d-----------------------------------------x2
a-----------------------------------------
e-----------------------------------------

back to chorus trumpets


e--12-13-14-15---12-13-14-15---12-13-14-15-20--
b----------------------------------------------
g----------------------------------------------
d----------------------------------------------
a----------------------------------------------
e----------------------------------------------


its fun to play on the guitar but if you have a trumpet try out those notes and they'll probably be right
Comments