Blues Brothers - I Cant Turn To Lose You Chords & Tabs

 

I Cant Turn To Lose You Chords & Tabs

Blues Brothers Chords & Tabs

Version: 1 Type: Bass Tab 0 ratings
1 star 2 stars 3 stars 4 stars 5 stars
comments

I Cant Turn To Lose You Bass Tab

Intro   

G|--------------------|-------------------|--------------------|
D|--------------------|-------------------|--------------------|
A|--3-----3-----------|--3-----3----------|--3-----3-----------|
E|----5-3------5-3-5--|----5-3------5-3-5-|----5-3------5-3-5--|

G|--------------------|-------------------|--------------------|
D|--------------------|-------------------|--------------------|
A|--3-----3-----------|--3-----3----------|--3-----3-----------|
E|----5-3------5-3-5--|----5-3------5-3-5-|----5-3------5-3-5--|

G|--------------------|-------------------|
D|--------------------|-------------5-3-2-|
A|--3-----3-----------|--3-----3----------|
E|----5-3------5-3-5--|----5-3------------|

G|--------------------|-------------------|--------------------|
D|--------------------|-------------------|--------------------|
A|--3-----3-----------|--3-----3----------|--3-----3-----------|
E|----5-3------5-3-5--|----5-3------5-3-5-|----5-3------5-3-5--|
[ Tab from: http://www.guitartabs.cc/tabs/b/blues_brothers/i_cant_turn_to_lose_you_btab.html ]
G|--------------------|-------------------|--------------------|
D|--------------------|-------------------|--------------------|
A|--3-----3-----------|--3-----3----------|--3-----3-----------|
E|----5-3------5-3-5--|----5-3------5-3-5-|----5-3------5-3-5--|

G|--------------------|----------------|
D|--------------------|--0--2--3--4--5-|
A|--3-----3-----------|----------------|
E|----5-3-------------|----------------|

Good evening ladies and gentlemen.........

G|--------------------------------------|
D|--------------------------------------|  x3
A|--3--3-----3-----3---------3----------|
E|-------------5-3-------5-3-------5-3-5|

G|--------------------------------------|
D|--3--3-----3-----3-------3------------|  x2
A|-------------5-3-----5-3-------5-3-5--|
E|--------------------------------------|

G|--------------------------------------|
D|--------------------------------------|  x8
A|--3--3-----3-----3---------3----------|
E|-------------5-3-------5-3-------5-3-5|

G|--------------------|
D|--------------------|  x11
A|--3-----3-----------|
E|----5-3------5-3-5--|

G|---------------|-------------|------------|---5----|
D|--0--2--3--4---|--0--2--3--4-|--0--2--3--4|--------|
A|---------------|-------------|------------|--------|
E|---------------|-------------|------------|--------|
Comments