Blues Brothers - Green Onions Chords & Tabs

 

Green Onions Chords & Tabs

Blues Brothers Chords & Tabs

Version: 1 Type: Bass Tab 0 ratings
1 star 2 stars 3 stars 4 stars 5 stars
comments

Green Onions Bass Tab

G ------|-------------------|-------------|-------------|-------------|
D ------|-----2-------------|-------------|-2-----------|-2-----------|
A ------|-------------------|-7-----0-----|-------0-----|-------0---0-|
E ------|-0-1---0-0-3-5-3-0-|---0-3---3-0-|---0-3---3-0-|---0-3---3---|

G |-2-------------|-2-------------|-------------|-----------|-4-------|
D |---------0-----|-------0---2---|-2-----------|-2---------|-----0-2-|
A |---0-3-3---3-0-|---0-3---5-----|-------0-----|-------0-2-|---2-----|
E |---------------|-------------0-|---0-3---3-0-|---0-3-----|---------|

G ----|-2-----------|-------------|---------------|-------------|-----|
D 0---|-------0-2---|-2-----------|-2-------------|-2-----------|-2---|
A --0-|---0-3-------|-------0-----|---------0-----|-------0-----|-----|
E ----|-----------0-|---0-3---3-0-|---0-3-3---3-0-|---0-3---3-0-|---0-|

G ----------|-----------|---------------|-2-----------|-2---------|---|
D ----------|-2---------|---2-----------|-------0-----|-------0-2-|---|
A ----0-----|-------0---|---------0---0-|---0-3---3-0-|---0-3-----|---|
E 3-3---3-0-|---0-3---3-|-0---0-3---3---|-------------|-----------|-0-|

G ------------|---------|---4-----------|-2-------------|-------------|
D 2-----------|-2-------|-------0-2-0---|-------0---2---|-2-----------|
A ------0-----|-------0-|-2---2-------0-|---0-3---5-----|---1-----0---|
E --0-3---3-0-|---0-3---|---------------|-------------0-|-----0-3---3-|

G |---------------------|---------------|-----------------|-----------|
D |---2-0---------------|-2-------------|-2---------------|-2---------|
A |-------3-2-----0-----|---------0-----|-----------0-----|---------0-|
E |-0---------3-3---3-0-|---0-0-3---3-0-|---0-1-0-3---3-0-|---0-0-3---|

G ----|---------------|-2-------------|-2---------------|-------------|
D ----|-2-------------|---------0-----|---------0---2---|-2-----------|
A ----|---------0---0-|---0-0-3---3-0-|---0-0-3---5-----|---5-----0---|
E 3-0-|---0-0-3---3---|---------------|---------------0-|-----0-3---3-|

G --|-------------|---4-------------|-2---------------|---------------|
D --|-2-----------|-----7---0-2-0---|-----------0-2---|-2-------------|
A --|-------0---2-|-2-----2-------0-|---0-0-3-3-------|---------0-----|
E 0-|---0-3---3---|-----------------|---------------0-|---0-3-3---3-0-|

G |-----------------------|---------------|-------------|-------------|
D |-----0---0---0-1---2---|---2-----------|-2-----------|-2-----------|
A |-0-----2---2-----5-----|---------0-----|-------0-----|---------0---|
E |---7-----------------0-|-0---0-3---3-0-|---0-3---3-0-|---0-3-3---3-|

G --|---------------|-2-----------|-2-------------|---------------|---|
D --|---2-----------|-------0-----|---------0---2-|---2-----------|-2-|
A --|---------0---0-|---0-3---3-0-|---0-3-3---5---|---------0-----|---|
E 0-|-2---0-3---3---|-------------|---------------|-0---0-3---3-0-|---|

G ----------|---4-------------|-2-----------|---------------|---------|
D ----------|---------0-2-0---|-------0-2---|-2---0---0---2-|-0---0---|
A --------0-|-2---2-2-------0-|---0-3-------|---2---2---2---|---2---2-|
E 0-0-3-3---|-----------------|-----------0-|---------------|---------|
[ Tab from: http://www.guitartabs.cc/tabs/b/blues_brothers/green_onions_btab.html ]
G --------|---------------|-------------|---------------|-------------|
D 0-1-2---|-2-------------|-2-----------|-2-------------|-2---2-------|
A --------|---------0-----|-------0-----|---------0-----|---------0---|
E ------0-|---0-0-3---3-0-|---0-3---3-0-|---0-0-3---3-0-|---0---3---3-|

G --|-2-----2-------|---2---2-------------|---------------|-----------|
D --|-----------0---|-----------0---2-----|-2-------------|-2---------|
A 0-|---0-----3---3-|-0---0---3---5-------|---------0-----|---------0-|
E --|-----7---------|-----------------0-1-|---0-0-3---3-0-|---0-0-3---|

G --|-4-------------|-2---2---------|-----------------|---------------|
D --|-------0-2-0---|---------0-2---|-2---2-----------|---------------|
A 2-|---2-2-------0-|---0---3-------|-----------0-----|-----0-0---1---|
E --|---------------|-------------0-|---0---0-3---3-0-|-3-3-----7---7-|

G ----|-------------|-------------|---------------|---------------|-2-|
D ----|-2-----------|-2-----------|-2-------------|-2-------------|---|
A 2---|-------0-----|-------0-----|---------0-----|---------0---0-|---|
E --0-|---0-3---3-0-|---0-3---3-0-|---0-3-3---3-0-|---0-0-3---3---|---|

G ------------|-2---------------|-----------------|-------------|-4---|
D ------0-----|-----------0---2-|---2-------------|-2---2-------|-----|
A 0---3---3-0-|---0-0-3-3---5---|-----------0-----|---------0-2-|---2-|
E --7---------|-----------------|-0---0-0-3---3-0-|---0---3-----|-----|

G 4---------|-2---2---------|---------------|---------------|---------|
D --0-2-0---|---------0-2---|-2---2---------|-2---2---------|-2-------|
A --------0-|---0---3-------|---------0-----|---------0-----|---------|
E ----------|-------------0-|---0---3---3-0-|---0---3---3-0-|---0-0-3-|

G ------|---------------|---------------|---------------|-2---2-------|
D ------|-2---2---------|-2-------------|-2---2---------|---------0---|
A 0-----|---------0-----|---------0-----|---------0---0-|---0---3---3-|
E --3-0-|---0---3---3-0-|---0-0-3---3-0-|---0---3---3---|-------------|

G --|-2-----------|-------------|---------|---4-----------|-2---------|
D --|-------0-2---|-2-----------|-2-------|-------0-2-0---|-------0-3-|
A 0-|---0-3-------|-------0-----|-------0-|-2---2-------0-|---0-3---7-|
E --|-----------0-|---0-3---3-0-|---0-3---|---------------|-----------|

G --|-------------|---------|-------------|-----------|---------------|
D --|-2-----------|-2-------|-2-----------|-2---------|---2-----------|
A --|-------0-----|---------|-------0-----|-------0---|---------0-----|
E 0-|---0-3---3-0-|---0-0-0-|---0-3---3-0-|---0-3---3-|-0---0-3---3-0-|

G |-------------|-2-----------|-2-----------|-------------|-----------|
D |-2-----------|-------0-----|-------0-2---|-2-----------|-2---------|
A |-------0---0-|---0-3---3-0-|---0-3-------|-------0-----|-------0---|
E |---0-3---3---|-------------|-----------0-|---0-3---3-0-|---0-3---3-|

G |-------------|-2-----------|-----------------|-------------|-------|
D |-----0-2-0---|-------0-2---|-2---------------|-----------2-|---2---|
A |-2-2-------0-|---0-3-------|---5-2-1---0-----|-1-0---------|-------|
E |-------------|-----------0-|---------5---3-0-|-----3-0-0---|-0---0-|

G --------------------------------------|-----------------------------|
D 2---2---2---2---2---2---2---2---2---2-|---2---2---2---2---2---2---2-|
A --------------------------------------|-----------------------------|
E --0---0---0---0---0---0---0---0---0---|-0---0---0---0---0---0---0---|

G ----------------------|---|
D --2---2---2---2---2---|-2-|
A ----------------------|---|
E 0---0---0---0---0---0-|---|
Comments