Blues - 12 Bar Blues Chords & Tabs

 

Blues Chords & Tabs

Version: 1 Type: Tab 0 ratings
1 star 2 stars 3 stars 4 stars 5 stars
comments

12 Bar Blues Tab

   
TWO GUITAR  12 Bar Blues Jam

/ = Slide Up
\ = Slide Down
x = mute previous note

|            E            |            E          |            E           |            E
(Guitar 1)
|-------------------------------------------------|-----------------------------------------------|
|-------------------------------------------------|-----------------------------------------------|
|-------------------------------------------------|-----------------------------------------------|
|-------------------------------------------------|-----------------------------------------------|
|--------------2--2--4--4--5--5--4--4--2--2-------|-------------2--2--4--4--5--5--4--4--2--2------|
|--0--0--4--4--------------------------------4--4-|-0--0--4--4--------------------------------4--4|
(Guitar 2)
|-------------------------------------------------|-----------------------------------------------|
|-------------------------------------------------|-----------------------------------------------|
|-------------------------------------------------|-----------------------------------------------|
|-------------------------------------------------|-----------------------------------------------|
|--2--2--4--4--2--2--4--4--2--2--4--4--2--2--4--4-|-2--2--4--4--2--2--4--4--2--2--4--4--2--2--4/-7|
|--0--0--0--0--0--0--0--0--0--0--0--0--0--0--0--0-|-0--0--0--0--0--0--0--0--0--0--0--0--0--0------|
[ Tab from: http://www.guitartabs.cc/tabs/b/blues/12_bar_blues_tab.html ]
|            A            |            A          |            E           |            E
(Guitar 1)
|-------------------------------------------------|-----------------------------------------------|
|-------------------------------------------------|-----------------------------------------------|
|-------------------------------------------------|-----------------------------------------------|
|--------------2--2--4--4--5--5--4--4--2--2-------|-----------------------------------------------|
|--0--0--4--4--------------------------------4--4-|-------------2--2--4--4--5--5--4--4--2--2------|
|-------------------------------------------------|-0--0--4--4--------------------------------4--4|
(Guitar 2)
|-------------------------------------------------|-----------------------------------------------|
|-------------------------------------------------|-----------------------------------------------|
|-------------------------------------------------|-----------------------------------------------|
|-------------------------------------------------|-----------------------------------------------|
|--7--7--9--9--7--7--9--9--7--7--9--9--7--7--9\-2-|-2--2--4--4--2--2--4--4--2--2--4--4--2--2--4/-9|
|--5--5--5--5--5--5--5--5--5--5--5--5--5--5-------|-0--0--0--0--0--0--0--0--0--0--0--0--0--0--0---|


|            B            |            A          |            E           |            B
(Guitar 1)
|-------------------------------------------------|-----------------------------------------------|
|-------------------------------------------------|-----------------------------------------------|
|-------------------------------------------------|-----------------------------------------------|
|--------1--1--4--4--1--1--------------2--2-------|-----------------------------------------------|
|--2--2--------------------0--0--4--4--------4--4-|-------------2--2--4--4--5x--------------------|
|-------------------------------------------------|-0--0--4--4------------------------------------|
(Guitar 2)
|-------------------------------------------------|-----------------------------------------------|
|-------------------------------------------------|-----------------------------------------------|
|-------------------------------------------------|-----------------------------------------------|
|-------------------------------------------------|-----------------------------------------------|
|9--9--11-11-9--9--11\-7-7--7--9--9--7--7--9\-2-|-2--2--4--4--2--2--4--4--2x----2/9-9-9-9-9-9-9\2-|
|7--7--7--7--7--7--7-----5--5--5--5--5--5--5----|-0--0--0--0--0--0--0--0--0x----0/7-7-7-7-7-7-7\0-|

||repeat as many times as you want (have fun)||
Comments