Blueline Medic - Making The Nouveau Riche Chords & Tabs


Making The Nouveau Riche Chords & Tabs

Blueline Medic Chords & Tabs

Version: 1 Type: Tab 0 ratings
1 star 2 stars 3 stars 4 stars 5 stars

Making The Nouveau Riche Tab

This is a awesome song by a mad band that my mate tom put me on to. This is my
first tab, but i've read them for long enough so i tried to make it as simple
to follow as possible, cos i remember the amount of tabs that lost me when i
was just starting out!!!! So here it is. Enjoy. And remember to crank it up.

Tabbed by arthur ellem

Artist: Blueline Medic
Album: The Apology Wars
Song: Making The Nouveau Riche

pm - palm mute
 ~ - vibrato

The Song starts with bass, but just play the guitar with some muffling
effect and it'll sound fine.

Intro - just play this note heaps (listen to the cd for timing)
e -----------------|
B -----------------|
G -----------------|
D -----------------|
A -----------------|
E -7-7-7-7-7-7-7---|

  You say I have to get a real life,
e -------------------------------------------|
B -------------------------------------------|
G -------------------------------------------|
D -------------------------------------------|
A -------------------------------------------|
E -7-7-7-7-7-7-7-7-7-7-7-7-7-7-7-7-7-7-7-7-7-|

  but i'm not sure how that in making someone or other rich, is
e ----------------------------------------------------------------|
B ----------------------------------------------------------------|
G ----------------------------------------------------------------|
D ----------------------------------------------------------------|
A ----------------------------------------------------------------|
E 0-0-0-0-0-0-0-0-0-0-0-0-0-0-0-0-0-0-0-0-0-0-0-0-0-0-0-7-7-7-7-7-|
[ Tab from: ]
  anymore real than making,      a riche for yourself
e --------------------------------------------------------------|
B --------------------------------------------------------------|
G --------------------------------------------------------------|
D --------------------------------------------------------------|
A --------------------------------------------------------------|
E 7-7-7-7-7-7-7-7-7-7-7-7-7-0-0-0-0-0-0-0-0-0-0-0-0-0-0-0-0-0-0-|


  pm                    pm                    pm
  Well I'm without...   a coin, a ...    or an elusive...
e ------------------------------------------------------------|
B ------------------------------------------------------------|
G ------------------------------------------------------------|
D -6---6---6---6---6-----4---4---4---4---4-----2---2---2---2--|
A -6---6---6---6---6-----4---4---4---4---4-----2---2---2---2--|
E -4---4---4---4---4-----2---2---2---2---2-----0---0---0---0--|

Play this again, then

  I Should go and get a real life     real like cutting a fine figure
e --------------------------------------------------------------------|
B --------------------------------------------------------------------|
G --------------------------------------------------------------------|
D 9-9-9-9-9-9-9-9-9-9-9-9-9-9-9-9-9-2-2-2-2-2-2-2-2-2-2-2-2-2-2-2-2-2-|
2 9-9-9-9-9-9-9-9-9-9-9-9-9-9-9-9-9-2-2-2-2-2-2-2-2-2-2-2-2-2-2-2-2-2-|
E 7-7-7-7-7-7-7-7-7-7-7-7-7-7-7-7-7-0-0-0-0-0-0-0-0-0-0-0-0-0-0-0-0-0-|

  or scraping a deposit together
e ----------------------------------|
B ----------------------------------|
G ----------------------------------|
D 2-2-2-2-2-2-2-2-2-2-2-2-2-2-2-2-2-|
A 2-2-2-2-2-2-2-2-2-2-2-2-2-2-2-2-2-|
E 0-0-0-0-0-0-0-0-0-0-0-0-0-0-0-0-0-|

play this twice

then back to the Verse (play once)

then play Chorus (twice)

then back to verse (play twice)

2nd guitar
simply plays single bottom note and holds it as chords change
e ------------------------|
B ------------------------|
G ------------------------|
D ------------------------|
A ------------------------|
E 4~~~~~~~2~~~~~~~0-------|

then play Chorus (twice)

play chorus (four times) but strum differently, more on / off disjointed.

The song fades out and thats it!