Blue Stahli - The Fall Chords & Tabs

 

The Fall Chords & Tabs

Blue Stahli Chords & Tabs

Version: 1 Type: Tab 0 ratings
1 star 2 stars 3 stars 4 stars 5 stars
comments

The Fall Tab

   
-------------------------------------------------------------------------------
                             The Fall  Blue Stahli
-------------------------------------------------------------------------------
Tabbed by: Alexander Sergeichuk
E-mail: zergo.am@gmail.com

Tuning: drop c#


Intro:

D#|------------------------------------------------------------------|
A#|------------------------------------------------------------------|
F#|------------------------------------------------------------------|
C#|------------------------------------------------------------------|
G#|------------------------------------------------------------------|
C#|-10h12-12--10h12-12--10h12-12--10h12-12---------------------------|


D#|------------------------------------------------------------------|
A#|------------------------------------------------------------------|
F#|------------------------------------------------------------------|
C#|------------------------------------------------------------------|
G#|------------------------------------------------------------------|
C#|-10h12-12--3-0--10h12-12--3-0--10h12-12--3-0--10h12-12--3-3-3-3---|


D#|------------------------------------------------------------------|
A#|------------------------------------------------------------------|
F#|------------------------------------------------------------------|
C#|----------------------------------------------------0-3--0-5------|
G#|----------------------------------------------------0-3--0-5------|
C#|-10h12-12--3-0--10h12-12--3-0--10h12-12--3-0--10h12-0-3--0-5------|


D#|------------------------------------------------------------------|
A#|------------------------------------------------------------------|
F#|------------------------------------------------------------------|
C#|------------------------------------------------------------------|
G#|------------------------------------------------------------------|
C#|-10h12-12--3-0--10h12-12--3-0--10h12-12--3-0--10h12-12--3-3-3-3---|


D#|-------------------------------------------------------------------------|
A#|-------------------------------------------------------------------------|
F#|-------------------------------------------------------------------------|
C#|-------------------------------------------------------------------------|
G#|-------------------------------------------------------------------------|
C#|-10h12-12-10h12-12-10h12-12-10h12-12-10h12-10h12-10h12-10h12-12--0-3-0-5-|


D#|-------------------------------------------------------------------------|
A#|-------------------------------------------------------------------------|
F#|-------------------------------------------------------------------------|
C#|-------------------------------------------------------------------------|
G#|-------------------------------------------------------------------------|
C#|-10h12-12--3-0-0-0-10h12-12--3-0-0-0-10h12-12--3-0-0-0-10h12-12--3-3-3-3-|


D#|----------------------------------------------------------------------|
A#|----------------------------------------------------------------------|
F#|----------------------------------------------------------------------|
C#|-------------------------------------------------------------0-3--0-5-|
G#|-------------------------------------------------------------0-3--0-5-|
C#|-10h12-12--3-0-0-0-10h12-12--3-0-0-0-10h12-12--3-0-0-0-10h12-0-3--0-5-|


Post-chorus:

D#|----------------------------------------------------------------|
A#|----------------------------------------------------------------|
F#|----------------------------------------------------------------|
C#|-10-12-12--3-0--10-12-12--3-0--10-12-12--3-0--10-12-12--3-3-3-3-|
G#|-10-12-12--3-0--10-12-12--3-0--10-12-12--3-0--10-12-12--3-3-3-3-|
C#|-10-12-12--3-0--10-12-12--3-0--10-12-12--3-0--10-12-12--3-3-3-3-|


D#|---------------------------------------------|----------------|
A#|---------------------------------------------|----------------|
F#|---------------------------------------------|----------------|
C#|-10-12-12--3-0--10-12-12--3-0--10-12-12--3-0-|-10-12-0-3--0-5-|
G#|-10-12-12--3-0--10-12-12--3-0--10-12-12--3-0-|-10-12-0-3--0-5-|
C#|-10-12-12--3-0--10-12-12--3-0--10-12-12--3-0-|-10-12-0-3--0-5-|

After first chorus there's a alternative ending:|----|
                                                |----| (Pick 7 times and
                                                |-12-| simultaneously bend
                                                |----| 1/2 tone up)
                                                |----|
                                                |----|

Verse:

D#|------------------------------------------------------------|
A#|------------------------------------------------------------|
F#|------------------------------------------------------------|
C#|------------------------------------------------------------|
G#|------------------------------------------------------------|
C#|--0-----7-----8----5-----7-----0-----7-----8----5----3----2-|
   (x16) (x16) (x8)  (x8) (x16) (x16) (x16) (x8) (x8) (x8) (x8)

  |-----------------------------p.m.---------------------------|

[ Tab from: http://www.guitartabs.cc/tabs/b/blue_stahli/the_fall_tab.html ]
D#|---------------------------------------------------------|
A#|---------------------------------------------------------|
F#|---------------------------------------------------------|
C#|---------------------------------------------------------|
G#|---------------------------------------------------------|
C#|--0-----7-----8----5-----7-----0-----7-----8----5----11--|
   (x16) (x16) (x8)  (x8) (x16) (x16) (x16) (x8) (x8) (x10)

  |-----------------------------p.m.------------------------|


Chorus:

D#|------------------------------------------------------------|
A#|------------------------------------------------------------|
F#|------------------------------------------------------------|
C#|--8-----3-----10----8-----3-----7---------------------------|
G#|--8-----3-----10----8-----3-----7---10--10-10-10-10-12b13\--|
C#|--8-----3-----10----8-----3-----7---------------------------|
   (x16) (x16) (x32) (x16) (x16) (x16)


Here goes post-chorus with alternative ending (see above).


Verse:

D#|------------------------------------------------------------|
A#|------------------------------------------------------------|
F#|------------------------------------------------------------|
C#|------------------------------------------------------------|
G#|------------------------------------------------------------|
C#|--0-----7-----8----5-----7-----0-----7-----8----5----3----2-|
   (x16) (x16) (x8)  (x8) (x16) (x16) (x16) (x8) (x8) (x8) (x8)

  |-----------------------------p.m.---------------------------|



D#|--------------------------------|
A#|--------------------------------|
F#|--------------------------------|
C#|--------------------------------|
G#|--------------------------------|
C#|--0-----7-----8---5----11----11-|
   (x16) (x16) (x8) (x8) (x8)  (x8)

  |------------p.m.----------| release p.m. and make vibrato


Chorus:

D#|-------------------------------------------------------|------------|
A#|-------------------------------------------------------|------------|
F#|-------------------------------------------------------|------------|
C#|--8-----3-----10----8-----3-----7----------------------|------------|
G#|--8-----3-----10----8-----3-----7---10--10-10-10-10-12-|-12b13br12\-|
C#|--8-----3-----10----8-----3-----7----------------------|------------|
   (x16) (x16) (x32) (x16) (x16) (x16)

(Don't know how to tab ending here :)Pick string 7 times and simultaneously bend it half 
step up and then release. After that slide down)

D#|-----------------------------------------------------------------|
A#|-----------------------------------------------------------------|
F#|-----------------------------------------------------------------|
C#|--8-----3-----10----10--10--10---10--10--10---10--10--10-10---10-|
G#|--8-----3-----10----10--10--10---10--10--10---10--10--10-10---10-|
C#|--8-----3-----10----10--10--10---10--10--10---10--10--10-10---10-|
   (x16) (x16) (x16)
                      |-p.m.-|     |-p.m.-|     |-p.m.-|        p.m.


D#|---------------------------------------------|
A#|---------------------------------------------|
F#|---------------------------------------------|
C#|--8-----3-----7------------------------------|
G#|--8-----3-----7---10--10-10-10-10-12b13br12\-|
C#|--8-----3-----7------------------------------|
   (x16) (x16) (x16)


Post-chorus and ending:

D#|-------------------------------------------------------------------------|
A#|-------------------------------------------------------------------------|
F#|-------------------------------------------------------------------------|
C#|-------------------------------------------------------------------------|
G#|-------------------------------------------------------------------------|
C#|-10h12-12--3-0-0-0-10h12-12--3-0-0-0-10h12-12--3-0-0-0-10h12-12--3-3-3-3-|


D#|----------------------------------------------------------------------|
A#|----------------------------------------------------------------------|
F#|----------------------------------------------------------------------|
C#|-------------------------------------------------------------0-3--0-5-|
G#|-------------------------------------------------------------0-3--0-5-|
C#|-10h12-12--3-0-0-0-10h12-12--3-0-0-0-10h12-12--3-0-0-0-10h12-0-3--0-5-|


D#|----------------------------------------------------------------|
A#|----------------------------------------------------------------|
F#|----------------------------------------------------------------|
C#|-10-12-12--3-0--10-12-12--3-0--10-12-12--3-0--10-12-12--3-3-3-3-|
G#|-10-12-12--3-0--10-12-12--3-0--10-12-12--3-0--10-12-12--3-3-3-3-|
C#|-10-12-12--3-0--10-12-12--3-0--10-12-12--3-0--10-12-12--3-3-3-3-|


D#|-------------------------------------------------------------|
A#|-------------------------------------------------------------|
F#|-------------------------------------------------------------|
C#|-10-12-12--3-0--10-12-12--3-0--10-12-12--3-0--10-12-0-3--0-5-|
G#|-10-12-12--3-0--10-12-12--3-0--10-12-12--3-0--10-12-0-3--0-5-|
C#|-10-12-12--3-0--10-12-12--3-0--10-12-12--3-0--10-12-0-3--0-5-|




D#|-----------------|
A#|-----------------|
F#|-----------------|
C#|-0-0---0-0---0-0-|
G#|-0-0---0-0---0-0-|
C#|-0-0---0-0---0-0-|

  |-----p.m.-----|

************************************

| /   slide up
| \   slide down
| h   hammer-on
| b   Bend
| br  Bend release

************************************
Comments