Blue Skies At War - Better Time Chords & Tabs

 

Better Time Chords & Tabs

Blue Skies At War Chords & Tabs

Version: 1 Type: Tab 0 ratings
1 star 2 stars 3 stars 4 stars 5 stars
comments

Better Time Tab

   
Band: Blue Skies at War
Song: Better Time
Tabber: AdornShadow (big_pickle@hotmail.com)
Tuning: Drop-D

I haven't seen any tabs up yet from B.S.A.W. so here's the first. This is a great
tune and not very hard to play. I tabbed out the parts but there are parts where
instead of strumming all of the notes at the end of the part, you just hit the not
once and let it ring. I wasn't gonna tab that stuff out cause it's a pretty simple
concept. If you listen to the song, you'll know what to do.

Intro 8x (Gtr.1 starts then Gtr.2 jumps in after 2nd time)
|-----------------------------|
|-----------------------------|
|.--11-11-11-11-11-11-11-11--.|
|.---------------------------.|
|---9--9--9--9--9--9--9--9----|
|-----------------------------|

2x
|---------------------------------------------|
|---------------------------------------------|
|.--11-11-11-11-11-11-11-11-9-9-9-9-9-9-9-9---|
|.--------------------------------------------|
|---9--9--9--9--9--9--9--9--7-7-7-7-7-7-7-7---|
|---------------------------------------------|

|---------------------------------------------|
|---------------------------------------------|
|---11-11-11-11-11-11-11-11-6-6-6-6-7-7-7-7---|
|---------------------------------------------|
|---9--9--9--9--9--9--9--9--4-4-4-4-5-5-5-5---|
|---------------------------------------------|

|-------------------------------------|
|-------------------------------------|
|---4-4-4-4-4-4-4-4-9-9-9-9-9-9-9-9---|
|-------------------------------------|
|---2-2-2-2-2-2-2-2-7-7-7-7-7-7-7-7---|
|-------------------------------------|

|-----------------------------------------------------|
|-----------------------------------------------------|
|---14-14-14-14-14-14-14-14-14-14-14-14-14-14-14-14--.|
|----------------------------------------------------.|
|---12-12-12-12-12-12-12-12-12-12-12-12-12-12-12-12---|
|-----------------------------------------------------|
[ Tab from: http://www.guitartabs.cc/tabs/b/blue_skies_at_war/better_time_tab.html ]
Verse 1 4x
|-------------------------------|
|-------------------------------|
|.-------9~----------------7~--.|
|.--7--7--------------7--7-----.|
|-------------------------------|
|-------------------------------|
                                              
                              _________________________________ ___________
Chorus 4x                     1.-3.                            |4.         |
|--------------------------------------------------------------|-----------|
|--------------------------------------------------------------|-----------|
|.------11b-11-------11b-11--7-7-7-7-7-7-7-7-7-7-7-7-7-7-7-7--.|-7--7------|
|.-9--9---------9--9---------7-7-7-7-7-7-7-7-7-7-7-7-7-7-7-7--.|-7--7--0~--|
|--9--9-9b--9---9--9-9b--9---5-5-5-5-5-5-5-5-4-4-4-4-4-4-4-4---|-5--5--0~--|
|--9--9---------9--9---------0-0-0-0-0-0-0-0-0-0-0-0-0-0-0-0---|-0--0--0~--|

Verse 2 4x (Gtr.1 with effect)
|---------------------------------------------------------------------|
|---------------------------------------------------------------------|
|.-------------------------------------------------------------------.|
|.--9~------------------------------5~-------------------------------.|
|---9~------------------------------5~--------------------------------|
|---9~------------------------------5~--------------------------------|
|Gtr.2
|---------------------------------------------------------------------|
|---------------------------------------------------------------------|
|.-------------------------------------------------------------------.|
|.--9-9-9-9-9-9-9-9-9-9-9-9-9-9-9-9-5-5-5-5-5-5-5-5-5-5-5-5-5-5-5-5--.|
|---9-9-9-9-9-9-9-9-9-9-9-9-9-9-9-9-5-5-5-5-5-5-5-5-5-5-5-5-5-5-5-5---|
|---9-9-9-9-9-9-9-9-9-9-9-9-9-9-9-9-5-5-5-5-5-5-5-5-5-5-5-5-5-5-5-5---|
PM  . . . . . . . . . . . . . . . . . . . . . . . . . . . . . . . .

Interlude 4x (Gtr. 1)
|---7------7---------------7----7------------|
|-------------10---10--10---------7---7--7---|
|.------------------------------------------.|
|.------------------------------------------.|
|--------------------------------------------|
|--------------------------------------------|
|(Gtr. 2 comes in after 2nd time)
|-----------------------------------------|
|-----------------------------------------|
|.--11-11-11-11-9-9-9-9-6-6-6-6-7-7-7-7--.|
|.---------------------------------------.|
|-----------------------------------------|
|-----------------------------------------|

The both guitars play this 3x
|-----------------------------------------|
|-----------------------------------------|
|.--11-11-11-11-9-9-9-9-6-6-6-6-7-7-7-7--.|
|.---------------------------------------.|
|-----------------------------------------|
|-----------------------------------------|

On fourth time play this 
|-----------------------------|
|-----------------------------|
|---11-11-11-11-9-9-9-9-11b---|
|-----------------------------|
|-----------------------------|
|-----------------------------|

Then this 4x again
|-----------------------------------------|
|-----------------------------------------|
|.--11-11-11-11-9-9-9-9-6-6-6-6-7-7-7-7--.|
|.---------------------------------------.|
|-----------------------------------------|
|-----------------------------------------|

Thats everything except for the very last part of the interlude where I couldn't make
anything out. If someone figures it out please send it to me so that I can add it. For
the rest I am very confident that this tab is 99% correct.
Comments