Blue Rodeo - Trust Yourself Chords & Tabs

 

Trust Yourself Chords & Tabs

Blue Rodeo Chords & Tabs

Version: 1 Type: Bass Tab 0 ratings
1 star 2 stars 3 stars 4 stars 5 stars
comments

Trust Yourself Bass Tab

		Trust Yourself
		by Blue Rodeo
		from the album "Casino"
		written by G. Keelor/J. Cuddy

transcribed by Annie Lord

This is a transcription for the bass only. The guitar tab, which also includes
lyrics and chords, is already posted at OLGA.

meter: 4/4
key: F# minor
tempo: approx. 132 bpm


The bass comes in on the fifth bar, with the vocals.

Intro:

   1 + 2 + 3 + 4 +   1 + 2 + 3 + 4 +   1 + 2 + 3 + 4 +   1 + 2 + 3 + 4 +
G|-----------------|-----------------|-----------------|-----------------|
D|-4---------------|-R-------2---2-3-|-4---------------|---------4-2-----|
A|-----------------|-------4---4-----|-----------------|-------------4---|
E|-----------------|-----------------|-----------------|-----------------|

   1 + 2 + 3 + 4 +   1 + 2 + 3 + 4 +   1 + 2 + 3 + 4 +   1 + 2 + 3 + 4 +
G|-----------------|-----------------|-----------------|-----------------|
D|-----------------|---------------2-|-4---------------|---------4-------|
A|-----------------|-----------0-2---|-----------------|-----------0-2-3-|
E|-2---------------|---------2-------|-----------------|-----------------|

   1 + 2 + 3 + 4 +   1 + 2 + 3 + 4 +   1 + 2 + 3 + 4 +   1 + 2 + 3 + 4 +
G|-----------------|-----------------|-----------------|-----------------|
D|-----------------|-----------------|-----------------|-----------------|
A|-4---------------|-----------------|-----------------|-----------0-2-3-|
E|-----------------|-----------------|-2---------------|---------2-------|

   1 + 2 + 3 + 4 +   1 + 2 + 3 + 4 +   1 + 2 + 3 + 4 +   1 + 2 + 3 + 4 +
G|-----------------|-----------------|-----------------|-----------------|
D|-----------------|-----------------|-----------------|-----------------|
A|-4---------------|-----------------|-2---------------|-----------------|
E|-----------------|-----------------|-----------------|-----------------|

   1 + 2 + 3 + 4 +   1 + 2 + 3 + 4 +   1 + 2 + 3 + 4 +   1 + 2 + 3 + 4 +
G|-----------------|-----------------|-----------------|-----------------|
D|-----------------|-----------------|-----------------|-----------------|
A|-5---------------|-----------------|-5---------------|-----------------|
E|-----------------|-5---------------|-----------------|-5---------------|

   1 + 2 + 3 + 4 +   1 + 2 + 3 + 4 +   1 + 2 + 3 + 4 +   1 + 2 + 3 + 4 +
G|-----------------|-----------------|-----------------|-----------------|
D|-----------------|-----------------|-----------------|-----------------|
A|-5-----5---------|---------5-------|-----------------|-----------------|
E|---------5-------|-7---------------|-2---------------|-R---------------|

   1 + 2 + 3 + 4 +   1 + 2 + 3 + 4 +  
G|-----------------|-----------------|
D|-----------------|-4-2-------------|	End of intro.
A|-----------------|-----4-3-2p0-----|	Thre rest of the band comes in.
E|-----------------|-------------0---|

Verse 1:

   1 + 2 + 3 + 4 +          1 + 2 + 3 + 4 +  
G|-----------------|      |-----------------|
D|-----------------| x7	  |-----------------|
A|---------4-----4-|	  |-----------0-2-3-|	
E|-2-----2---------|	  |-2-------2-------|

   1 + 2 + 3 + 4 +   1 + 2 + 3 + 4 +   1 + 2 + 3 + 4 +   1 + 2 + 3 + 4 +
G|-----------------|-----------------|-----------------|-----------------|
D|-----------------|-----------------|-----------------|---------4-2-----|
A|-4-----4---------|-4-----4---------|---------4-----4-|-------------2-3-|
E|---------4-----4-|---------4-----4-|-2-----2---------|-2-----2---------|

   1 + 2 + 3 + 4 +   1 + 2 + 3 + 4 +   1 + 2 + 3 + 4 +   1 + 2 + 3 + 4 +
G|-----------------|-----------------|-----------------|-----------------|
D|-----------------|-----------------|-----------------|-----------------|
A|-4-----4---------|-4-----4---------|-2-----2-2-------|-2-----2-2---2---|
E|---------4-----4-|---------4-----4-|-----------------|-----------------|

   1 + 2 + 3 + 4 +   1 + 2 + 3 + 4 +   1 + 2 + 3 + 4 +   1 + 2 + 3 + 4 +
G|-----------------|-----------------|-----------------|-----------------|
D|-----------------|-----------------|-----------------|-----------------|
A|-5-----5-5-------|-----------------|-5-----5-5-------|-----------------|
E|-----------------|-5-----5-5-------|-----------------|-5-----5-5-------|

                                      Guitar solo:  
   1 + 2 + 3 + 4 +   1 + 2 + 3 + 4 +    1 + 2 + 3 + 4 +   1 + 2 + 3 + 4 +
G|-----------------|-----------------||-----------------|-----------------|
D|-----------------|-----------------||-----------------|-----------------|
A|-5---------------|---------5-------||---------4-4---4-|---------4-4---4-|
E|---------5-------|-7---------------||-2-----2---------|-2-----2---------|
[ Tab from: http://www.guitartabs.cc/tabs/b/blue_rodeo/trust_yourself_btab.html ]
   1 + 2 + 3 + 4 +   1 + 2 + 3 + 4 +   1 + 2 + 3 + 4 +   1 + 2 + 3 + 4 +
G|-----------------|-----------------|-----------------|-----------------|
D|-----------------|-----------------|-----------------|-----------------|
A|---------4-4---4-|---------4-0-2-3-|-4-----4---------|-4-----4-----2---|
E|-2-----2---------|-2-----2---------|---------4-----4-|---------4-------|

   1 + 2 + 3 + 4 +   1 + 2 + 3 + 4 +   1 + 2 + 3 + 4 +   1 + 2 + 3 + 4 +
G|-----------------|-----------------|-----------------|-----------------|
D|-----------------|-----------------|-----------------|-----------------|
A|-2-----2---------|-2-----2-----2---|-5-5-5-5-5-5-5-5-|-5-5-5-5-5-5-5-5-|
E|---------2-----2-|---------2-------|-----------------|-----------------|

   1 + 2 + 3 + 4 +   1 + 2 + 3 + 4 +   1 + 2 + 3 + 4 +   1 + 2 +  3 + 4 +
G|-----------------|-----------------|-----------------|------------------|
D|-----------------|-----------------|-----------------|----/11-9-11------|
A|-5-5-5-5-5-5-5-5-|-5-5-5-5-5-5-5-5-|-4-4-4-4-4-4-4-4-|-4-4----------11--|
E|-----------------|-----------------|-----------------|------------------|

Verse 2:

   1 + 2 + 3 + 4 +          1 + 2 + 3 + 4 +  
G|-----------------|      |-----------------|
D|-----------------| x9	  |-----------------|
A|---------4-----4-|	  |---------4---0-2-|	
E|-2-----2---------|	  |-2-----2---------|

   1 + 2 + 3 + 4 +   1 + 2 + 3 + 4 +   1 + 2 + 3 + 4 +   1 + 2 + 3 + 4 +
G|-----------------|-----------------|-----------------|-----------------|
D|-----------------|-----------------|-----------------|---------4-------|
A|-4-----4---------|-4-----4-----4---|---------4-----4-|-----------0-2-3-|
E|---------4-----4-|---------4-------|-2-----2---------|-2-----2---------|

   1 + 2 + 3 + 4 +   1 + 2 + 3 + 4 +   1 + 2 + 3 + 4 +   1 + 2 + 3 + 4 +
G|-----------------|-----------------|-----------------|-----------------|
D|-----------------|-----------------|---------4-----4-|-----------------|
A|-4-----4---------|-4-----4-----4---|-2-----2---------|-2-----2-2---2---|
E|---------4-----4-|---------4-------|-----------------|-----------------|

   1 + 2 + 3 + 4 +   1 + 2 + 3 + 4 +   1 + 2 + 3 + 4 +   1 + 2 + 3 + 4 +
G|-----------------|-----------------|-----------------|-----------------|
D|-----------------|-----------------|-----------------|-----------------|
A|-5-----5-5-------|-----------------|-5-----5-5-------|-----------------|
E|-----------------|-5-----5-5-------|-----------------|-5-----5-5-------|

   1 + 2 + 3 + 4 +   1 + 2 + 3 + 4 +   1 + 2 + 3 + 4 +   1 + 2 + 3 + 4 +
G|-----------------|-----------------|-----------------|-----------------|
D|-----------------|-----------------|-12\-----7-------|-9---------------|
A|-----------------|-------4-5-------|-----------------|---------5-------|
E|-10\-----5-------|-7---------------|-----------------|-----------------|

    1 + 2 + 3 + 4 +   1 + 2 + 3 + 4 + 
G|------------------|-----------------|
D|-/12\-----7-------|-9---------------|
A|------------------|---------5-------|
E|------------------|-----------------|

Outro (guitar solo):

   1 + 2 + 3 + 4 +          1 + 2 + 3 + 4 +  
G|-----------------|      |-----------------|
D|-----------------| x7	  |-----------2-----|
A|---------4-----4-|	  |---------4---4-2-|	
E|-2-----2---------|	  |-2-----2---------|

   1 + 2 + 3 + 4 +   1 + 2 + 3 + 4 +   1 + 2 + 3 + 4 +   1 + 2 + 3 + 4 +
G|-----------------|-----------------|-----------------|-----------------|
D|-----------------|-----------------|-----------------|-------2---------|
A|---------4-----4-|---------4-----4-|---------4-----4-|-----4---4-2-0---|
E|-2-----2---------|-2-----2---------|-2-----2---------|-2---------------|

   1 + 2 + 3 + 4 +   1 + 2 + 3 + 4 +   1 + 2 + 3 + 4 +   1 + 2 + 3 + 4 +
G|-----------------|-----------------|-----------------|-----------------|
D|-----------------|-----------------|-----------------|-------2---2-2h3-|
A|---------4-----4-|---------4-----4-|---------4-----4-|-----4---4-------|
E|-2-----2---------|-2-----2---------|-2-----2---------|-2---------------|

   1 + 2 + 3 + 4 +   1 + 2 + 3 + 4 +   1 + 2 + 3 + 4 +   1 + 2 + 3 + 4 +
G|-----------------|-----------------|-----------------|-----------------|
D|-----------------|-----------------|-----------------|-----4-2---------|
A|---------4-----4-|---------4-----4-|---------4-----4-|---------4-3-2-0-|
E|-2-----2---------|-2-----2---------|-2-----2---------|-2---------------|

   1 + 2 + 3 + 4 +          
G|-----------------|     
D|-----------------|  repeat and fade
A|---------4-----4-|	  
E|-2-----2---------|

Tab eplanation:

/,\ --> slide up, down
h   --> hammer-on
p   --> pull-off
R   --> rest

Notes:

-The numbers above the tab represent the beats and half-beats. It's the best
	way I found to express rhythm in tab.
-Each note is held until the next one, unless there in an R, which stands
	for rest, and then there should be silence until the next note.



Comments