Blue Oyster Cult - Godzilla Chords & Tabs

 

Godzilla Chords & Tabs

Blue Oyster Cult Chords & Tabs

Version: 7 Type: Tab 0 ratings
1 star 2 stars 3 stars 4 stars 5 stars
comments

Godzilla Tab

Blue Oyster Cult
Godzilla


Tuning: Drop D

Intro
e|-------------------------|-------------------------|
B|-------------------------|-------------------------|
G|-------------------------|-------------------------|  
D|-------------------------|-------------------------|  
A|-4---2-4---4/7---6-7-----|-4---2-4---4/7---6-7-----|  
D|-4---------4/7--------9--|-4---------4/7--------9--|

[ Tab from: http://www.guitartabs.cc/tabs/b/blue_oyster_cult/godzilla_tab_ver_7.html ]
Verse
e|-------------------------|-------------------------|
B|-------------------------|-------------------------|
G|-9-9---7-7---6-6---4-4---|-9-9---7-7---6-6---4-4---|
D|-x-x---x-x---x-x---x-x---|-x-x---x-x---x-x---x-x---|
A|-7-7---7-7---7-7---7-7---|-7-7---7-7---7-7---7-7---|
D|-------------------------|-------------------------|


Chorus
e|-------------------------|-------------------------|
B|-------------------------|-------------------------|
G|--------------2---2-4-4^-|--------------2---2-4-4^-|
D|------------4---4--------|------------4---4--------|
A|-4--4--4-4---------------|-4--4--4-4---------------|
D|-4--4--4-4---------------|-4--4--4-4---------------|

Sorry if this sucks, it's my first one.
Comments