Blue Oyster Cult - E T I Chords & Tabs

 

E T I Chords & Tabs

Blue Oyster Cult Chords & Tabs

Version: 2 Type: Tab 0 ratings
1 star 2 stars 3 stars 4 stars 5 stars
comments

E T I Tab

Here’s the tab to E.T.I. (Extraterrestrial Intelligence). Minor corrections have been made to the version already listed on the site.

FIG. 1

I hear the music…
Three men in black said…
“Ascension,” and that’s…
Sickness now…

-------------X----------------------
-------------X----------------------
-------------X----------------------
-------------X----------------------
--------------2----------------------
--------------0----------------------

FIG. 2
[ Tab from: http://www.guitartabs.cc/tabs/b/blue_oyster_cult/e_t_i_tab_ver_2.html ]
Daylight disc…
Don’t report this…
All they said…
The hour’s dread…
--------------X---------------------
--------------2---------------------
--------------2---------------------
--------------2---------------------
--------------4---------------------
--------------X---------------------

FIG. 3

------------------------------------------------
------------------------------------------------
------------------------------------------------
---------------------------0--0-----------------
-------------0--1--2--4----------4--2-----------
--0--3--0--------------------------------3------

Return to FIG. 1
Comments