Blue Oyster Cult - Dont Fear The Reaper Chords & Tabs

 

Dont Fear The Reaper Chords & Tabs

Blue Oyster Cult Chords & Tabs

Version: 3 Type: Tab 0 ratings
1 star 2 stars 3 stars 4 stars 5 stars
comments

Dont Fear The Reaper Tab

   
#----------------------------------PLEASE NOTE---------------------------------#
#This file is the author's own work and represents their interpretation of the #
#song. You may only use this file for private study, scholarship, or research. #
#------------------------------------------------------------------------------#

Artist: Blue Oyster Cult
Song: Don't Fear The Reaper
Tabbed by Spike

Hey, this song is amazing. To you it may seem weak from it's appearence.
But hell, once you've listened to it, you'll fall in love with it. There's
also cello in there, and as I don't play the cello I could only do the guitar bit.
It sounds good to me...If you don't have the song...get it!
...Oh yeah, I tabbed it at 4am, and I worked out the lyrics myself.
(This is on the Scream soundtrack)


Eb|-----0---------------------|-------------0------------------------|
Bb|----1-1--------------------|------------1-1-----------------------|
F#|------------0----0----0----|-----0--------------0----0-----0------|
C#|-----------0-0--0-0--0-0---|----0--------------0-0--0-0---0-0-----|
G#|--0------------------------|----------0---------------------------|
Eb|---------3-----1----3------|--1----3---------3-----1----0---------|
                               "Seasons..."    "Nor do the wind..."  



[ Tab from: http://www.guitartabs.cc/tabs/b/blue_oyster_cult/dont_fear_the_reaper_tab_ver_3.html ]
|----------5-0----------------------|-5-0-------------------5-0--|
|-----------------------------------|----------------------------|
|-----0-----------0----0-----0------|-------0-----0-----0--------|
|----0-----------0-0--0-0---0-0-----|------0-0---0-0---0-0-------|
|----------0-0----------------------|-0-0-------------------0-0--|
|--1----3-------3-----1----0--------|-----3-----1-----3----------|
  "Romeo and juliet..."   

All of the patterns are there above, if you really want to play this song.
I suggest you sit there and work which bits go where. I've gave you the
basic layout. So just listen to it and try and work it out. It's more complicated
than you'd expect. The pieces are repeated throughout the song in different orders.
It's complicated, but those are the main pieces.


From: Ed Tidwell 

Note: Use your baby finger alot especially with Buck Dharma's Style.

h = hammer on
p = pull off
bu9to11 = means have note bent to 11 at start of play.  
bu9to11to9 = means bend 9 to 11 and release back to 9.
*** = triplet
^ = hold for ~1/4
O = Open
E7/B = E seventh chord with a B root ( bass ) note.


==========================================================================

blue Oyster Cult - Cities on Flame ( With Rock and Roll )

Key of A so F# Blues type runs work great.

R = rest
*** = triplet

Main Riff

    F#m
-------------------------------------------------------------------------------
-------------------------------------------------------------------------------
-------------------------------------------------------------------------------
----------------4--2--2------------------4--2--2-------------------------------
-------------O34-34-34-32O------------O34-34-34-32O----------------------------
----252--R--2-------------2O-252--R--2-------------2O--REPEAT------------------

                       ***                      ***

Comments